  0
SECTION
  2
HEADER
  9
$ACADVER
  1
AC1024
  9
$ACADMAINTVER
 70
     6
  9
$DWGCODEPAGE
  3
ANSI_1252
  9
$INSBASE
 10
0.0
 20
0.0
 30
0.0
  9
$EXTMIN
 10
1.000000000000000E+20
 20
1.000000000000000E+20
 30
1.000000000000000E+20
  9
$EXTMAX
 10
-1.000000000000000E+20
 20
-1.000000000000000E+20
 30
-1.000000000000000E+20
  9
$LIMMIN
 10
0.0
 20
0.0
  9
$LIMMAX
 10
12.0
 20
9.0
  9
$ORTHOMODE
 70
     0
  9
$REGENMODE
 70
     1
  9
$FILLMODE
 70
     1
  9
$QTEXTMODE
 70
     0
  9
$MIRRTEXT
 70
     1
  9
$LTSCALE
 40
1.0
  9
$ATTMODE
 70
     1
  9
$TEXTSIZE
 40
0.2
  9
$TRACEWID
 40
0.05
  9
$TEXTSTYLE
  7
Standard
  9
$CLAYER
  8
0
  9
$CELTYPE
  6
ByLayer
  9
$CECOLOR
 62
   256
  9
$CELTSCALE
 40
1.0
  9
$DISPSILH
 70
     0
  9
$DIMSCALE
 40
1.0
  9
$DIMASZ
 40
0.18
  9
$DIMEXO
 40
0.0625
  9
$DIMDLI
 40
0.38
  9
$DIMRND
 40
0.0
  9
$DIMDLE
 40
0.0
  9
$DIMEXE
 40
0.18
  9
$DIMTP
 40
0.0
  9
$DIMTM
 40
0.0
  9
$DIMTXT
 40
0.18
  9
$DIMCEN
 40
0.09
  9
$DIMTSZ
 40
0.0
  9
$DIMTOL
 70
     0
  9
$DIMLIM
 70
     0
  9
$DIMTIH
 70
     1
  9
$DIMTOH
 70
     1
  9
$DIMSE1
 70
     0
  9
$DIMSE2
 70
     0
  9
$DIMTAD
 70
     0
  9
$DIMZIN
 70
     0
  9
$DIMBLK
  1

  9
$DIMASO
 70
     1
  9
$DIMSHO
 70
     1
  9
$DIMPOST
  1

  9
$DIMAPOST
  1

  9
$DIMALT
 70
     0
  9
$DIMALTD
 70
     2
  9
$DIMALTF
 40
25.4
  9
$DIMLFAC
 40
1.0
  9
$DIMTOFL
 70
     0
  9
$DIMTVP
 40
0.0
  9
$DIMTIX
 70
     0
  9
$DIMSOXD
 70
     0
  9
$DIMSAH
 70
     0
  9
$DIMBLK1
  1

  9
$DIMBLK2
  1

  9
$DIMSTYLE
  2
Standard
  9
$DIMCLRD
 70
     0
  9
$DIMCLRE
 70
     0
  9
$DIMCLRT
 70
     0
  9
$DIMTFAC
 40
1.0
  9
$DIMGAP
 40
0.09
  9
$DIMJUST
 70
     0
  9
$DIMSD1
 70
     0
  9
$DIMSD2
 70
     0
  9
$DIMTOLJ
 70
     1
  9
$DIMTZIN
 70
     0
  9
$DIMALTZ
 70
     0
  9
$DIMALTTZ
 70
     0
  9
$DIMUPT
 70
     0
  9
$DIMDEC
 70
     4
  9
$DIMTDEC
 70
     4
  9
$DIMALTU
 70
     2
  9
$DIMALTTD
 70
     2
  9
$DIMTXSTY
  7
Standard
  9
$DIMAUNIT
 70
     0
  9
$DIMADEC
 70
     0
  9
$DIMALTRND
 40
0.0
  9
$DIMAZIN
 70
     0
  9
$DIMDSEP
 70
    46
  9
$DIMATFIT
 70
     3
  9
$DIMFRAC
 70
     0
  9
$DIMLDRBLK
  1

  9
$DIMLUNIT
 70
     2
  9
$DIMLWD
 70
    -2
  9
$DIMLWE
 70
    -2
  9
$DIMTMOVE
 70
     0
  9
$DIMFXL
 40
1.0
  9
$DIMFXLON
 70
     0
  9
$DIMJOGANG
 40
0.7853981633974483
  9
$DIMTFILL
 70
     0
  9
$DIMTFILLCLR
 70
     0
  9
$DIMARCSYM
 70
     0
  9
$DIMLTYPE
  6

  9
$DIMLTEX1
  6

  9
$DIMLTEX2
  6

  9
$DIMTXTDIRECTION
 70
     0
  9
$LUNITS
 70
     2
  9
$LUPREC
 70
     4
  9
$SKETCHINC
 40
0.1
  9
$FILLETRAD
 40
0.5
  9
$AUNITS
 70
     0
  9
$AUPREC
 70
     0
  9
$MENU
  1
.
  9
$ELEVATION
 40
0.0
  9
$PELEVATION
 40
0.0
  9
$THICKNESS
 40
0.0
  9
$LIMCHECK
 70
     0
  9
$CHAMFERA
 40
0.5
  9
$CHAMFERB
 40
0.5
  9
$CHAMFERC
 40
1.0
  9
$CHAMFERD
 40
0.0
  9
$SKPOLY
 70
     0
  9
$TDCREATE
 40
2457008.893842581
  9
$TDUCREATE
 40
2457009.102175926
  9
$TDUPDATE
 40
2457008.893842592
  9
$TDUUPDATE
 40
2457009.102175937
  9
$TDINDWG
 40
0.0000000116
  9
$TDUSRTIMER
 40
0.0000000116
  9
$USRTIMER
 70
     1
  9
$ANGBASE
 50
0.0
  9
$ANGDIR
 70
     0
  9
$PDMODE
 70
     0
  9
$PDSIZE
 40
0.0
  9
$PLINEWID
 40
0.0
  9
$SPLFRAME
 70
     0
  9
$SPLINETYPE
 70
     6
  9
$SPLINESEGS
 70
     8
  9
$HANDSEED
  5
6DD
  9
$SURFTAB1
 70
     6
  9
$SURFTAB2
 70
     6
  9
$SURFTYPE
 70
     6
  9
$SURFU
 70
     6
  9
$SURFV
 70
     6
  9
$UCSBASE
  2

  9
$UCSNAME
  2

  9
$UCSORG
 10
0.0
 20
0.0
 30
0.0
  9
$UCSXDIR
 10
1.0
 20
0.0
 30
0.0
  9
$UCSYDIR
 10
0.0
 20
1.0
 30
0.0
  9
$UCSORTHOREF
  2

  9
$UCSORTHOVIEW
 70
     0
  9
$UCSORGTOP
 10
0.0
 20
0.0
 30
0.0
  9
$UCSORGBOTTOM
 10
0.0
 20
0.0
 30
0.0
  9
$UCSORGLEFT
 10
0.0
 20
0.0
 30
0.0
  9
$UCSORGRIGHT
 10
0.0
 20
0.0
 30
0.0
  9
$UCSORGFRONT
 10
0.0
 20
0.0
 30
0.0
  9
$UCSORGBACK
 10
0.0
 20
0.0
 30
0.0
  9
$PUCSBASE
  2

  9
$PUCSNAME
  2

  9
$PUCSORG
 10
0.0
 20
0.0
 30
0.0
  9
$PUCSXDIR
 10
1.0
 20
0.0
 30
0.0
  9
$PUCSYDIR
 10
0.0
 20
1.0
 30
0.0
  9
$PUCSORTHOREF
  2

  9
$PUCSORTHOVIEW
 70
     0
  9
$PUCSORGTOP
 10
0.0
 20
0.0
 30
0.0
  9
$PUCSORGBOTTOM
 10
0.0
 20
0.0
 30
0.0
  9
$PUCSORGLEFT
 10
0.0
 20
0.0
 30
0.0
  9
$PUCSORGRIGHT
 10
0.0
 20
0.0
 30
0.0
  9
$PUCSORGFRONT
 10
0.0
 20
0.0
 30
0.0
  9
$PUCSORGBACK
 10
0.0
 20
0.0
 30
0.0
  9
$USERI1
 70
     0
  9
$USERI2
 70
     0
  9
$USERI3
 70
     0
  9
$USERI4
 70
     0
  9
$USERI5
 70
     0
  9
$USERR1
 40
0.0
  9
$USERR2
 40
0.0
  9
$USERR3
 40
0.0
  9
$USERR4
 40
0.0
  9
$USERR5
 40
0.0
  9
$WORLDVIEW
 70
     1
  9
$SHADEDGE
 70
     3
  9
$SHADEDIF
 70
    70
  9
$TILEMODE
 70
     1
  9
$MAXACTVP
 70
    64
  9
$PINSBASE
 10
0.0
 20
0.0
 30
0.0
  9
$PLIMCHECK
 70
     0
  9
$PEXTMIN
 10
0.0
 20
0.0
 30
0.0
  9
$PEXTMAX
 10
0.0
 20
0.0
 30
0.0
  9
$PLIMMIN
 10
-0.25
 20
-0.25
  9
$PLIMMAX
 10
10.75
 20
8.25
  9
$UNITMODE
 70
     0
  9
$VISRETAIN
 70
     1
  9
$PLINEGEN
 70
     0
  9
$PSLTSCALE
 70
     1
  9
$TREEDEPTH
 70
  3020
  9
$CMLSTYLE
  2
Standard
  9
$CMLJUST
 70
     0
  9
$CMLSCALE
 40
1.0
  9
$PROXYGRAPHICS
 70
     1
  9
$MEASUREMENT
 70
     0
  9
$CELWEIGHT
370
    -1
  9
$ENDCAPS
280
     0
  9
$JOINSTYLE
280
     0
  9
$LWDISPLAY
290
     0
  9
$INSUNITS
 70
     1
  9
$HYPERLINKBASE
  1

  9
$STYLESHEET
  1

  9
$XEDIT
290
     1
  9
$CEPSNTYPE
380
     0
  9
$PSTYLEMODE
290
     1
  9
$FINGERPRINTGUID
  2
{4798DBA4-7B19-2726-A5D7-C9F3AD4D305E}
  9
$VERSIONGUID
  2
{FAEB1C32-E019-11D5-929B-00C0DF256EC4}
  9
$EXTNAMES
290
     1
  9
$PSVPSCALE
 40
0.0
  9
$OLESTARTUP
290
     0
  9
$SORTENTS
280
   127
  9
$INDEXCTL
280
     0
  9
$HIDETEXT
280
     1
  9
$XCLIPFRAME
280
     2
  9
$HALOGAP
280
     0
  9
$OBSCOLOR
 70
   257
  9
$OBSLTYPE
280
     0
  9
$INTERSECTIONDISPLAY
280
     0
  9
$INTERSECTIONCOLOR
 70
   257
  9
$DIMASSOC
280
     2
  9
$PROJECTNAME
  1

  9
$CAMERADISPLAY
290
     0
  9
$LENSLENGTH
 40
50.0
  9
$CAMERAHEIGHT
 40
0.0
  9
$STEPSPERSEC
 40
2.0
  9
$STEPSIZE
 40
6.0
  9
$3DDWFPREC
 40
2.0
  9
$PSOLWIDTH
 40
0.25
  9
$PSOLHEIGHT
 40
4.0
  9
$LOFTANG1
 40
1.570796326794897
  9
$LOFTANG2
 40
1.570796326794897
  9
$LOFTMAG1
 40
0.0
  9
$LOFTMAG2
 40
0.0
  9
$LOFTPARAM
 70
     7
  9
$LOFTNORMALS
280
     1
  9
$LATITUDE
 40
37.795
  9
$LONGITUDE
 40
-122.394
  9
$NORTHDIRECTION
 40
0.0
  9
$TIMEZONE
 70
 -8000
  9
$LIGHTGLYPHDISPLAY
280
     1
  9
$TILEMODELIGHTSYNCH
280
     1
  9
$SOLIDHIST
280
     1
  9
$SHOWHIST
280
     1
  9
$DWFFRAME
280
     2
  9
$DGNFRAME
280
     2
  9
$REALWORLDSCALE
290
     1
  9
$INTERFERECOLOR
 62
   256
  9
$CSHADOW
280
     0
  9
$SHADOWPLANELOCATION
 40
0.0
  0
ENDSEC
  0
SECTION
  2
CLASSES
  0
CLASS
  1
ACDBDICTIONARYWDFLT
  2
AcDbDictionaryWithDefault
  3
ObjectDBX Classes
 90
        0
 91
        4
280
     0
281
     0
  0
CLASS
  1
VISUALSTYLE
  2
AcDbVisualStyle
  3
ObjectDBX Classes
 90
     4095
 91
        4
280
     0
281
     0
  0
CLASS
  1
MATERIAL
  2
AcDbMaterial
  3
ObjectDBX Classes
 90
     1153
 91
        4
280
     0
281
     0
  0
CLASS
  1
SCALE
  2
AcDbScale
  3
ObjectDBX Classes
 90
     1153
 91
        4
280
     0
281
     0
  0
CLASS
  1
DICTIONARYVAR
  2
AcDbDictionaryVar
  3
ObjectDBX Classes
 90
        0
 91
        4
280
     0
281
     0
  0
ENDSEC
  0
SECTION
  2
TABLES
  0
TABLE
  2
VPORT
  5
8
330
0
100
AcDbSymbolTable
 70
     1
  0
VPORT
  5
29
330
8
100
AcDbSymbolTableRecord
100
AcDbViewportTableRecord
  2
*Active
 70
     0
 10
0.0
 20
0.0
 11
1.0
 21
1.0
 12
45.88543650793652
 22
-61.11200025828842
 13
0.0
 23
0.0
 14
0.5
 24
0.5
 15
0.5
 25
0.5
 16
0.0
 26
0.0
 36
1.0
 17
0.0
 27
0.0
 37
0.0
 40
114.1914717969558
 41
0.6098204128589478
 42
50.0
 43
0.0
 44
0.0
 50
0.0
 51
0.0
 71
     0
 72
   100
 73
     1
 74
     3
 75
     0
 76
     0
 77
     0
 78
     0
281
     0
 65
     1
110
0.0
120
0.0
130
0.0
111
1.0
121
0.0
131
0.0
112
0.0
122
1.0
132
0.0
 79
     0
146
0.0
 60
     3
 61
     5
292
     1
282
     1
141
0.0
142
0.0
 63
   250
  0
ENDTAB
  0
TABLE
  2
LTYPE
  5
5
330
0
100
AcDbSymbolTable
 70
     1
  0
LTYPE
  5
14
330
5
100
AcDbSymbolTableRecord
100
AcDbLinetypeTableRecord
  2
ByBlock
 70
     0
  3

 72
    65
 73
     0
 40
0.0
  0
LTYPE
  5
15
330
5
100
AcDbSymbolTableRecord
100
AcDbLinetypeTableRecord
  2
ByLayer
 70
     0
  3

 72
    65
 73
     0
 40
0.0
  0
LTYPE
  5
16
330
5
100
AcDbSymbolTableRecord
100
AcDbLinetypeTableRecord
  2
Continuous
 70
     0
  3
Solid line
 72
    65
 73
     0
 40
0.0
  0
ENDTAB
  0
TABLE
  2
LAYER
  5
2
330
0
100
AcDbSymbolTable
 70
     2
  0
LAYER
  5
10
330
2
100
AcDbSymbolTableRecord
100
AcDbLayerTableRecord
  2
0
 70
     0
 62
     7
  6
Continuous
370
    -3
390
F
347
3E
  0
LAYER
  5
3F
330
2
100
AcDbSymbolTableRecord
100
AcDbLayerTableRecord
  2
DRYERJACK 486AL
 70
     0
 62
     7
  6
Continuous
370
    -3
390
F
347
3E
  0
ENDTAB
  0
TABLE
  2
STYLE
  5
3
330
0
100
AcDbSymbolTable
 70
     1
  0
STYLE
  5
11
330
3
100
AcDbSymbolTableRecord
100
AcDbTextStyleTableRecord
  2
Standard
 70
     0
 40
0.0
 41
1.0
 50
0.0
 71
     0
 42
0.2
  3
txt
  4

  0
ENDTAB
  0
TABLE
  2
VIEW
  5
6
330
0
100
AcDbSymbolTable
 70
     0
  0
ENDTAB
  0
TABLE
  2
UCS
  5
7
330
0
100
AcDbSymbolTable
 70
     0
  0
ENDTAB
  0
TABLE
  2
APPID
  5
9
330
0
100
AcDbSymbolTable
 70
     1
  0
APPID
  5
12
330
9
100
AcDbSymbolTableRecord
100
AcDbRegAppTableRecord
  2
ACAD
 70
     0
  0
ENDTAB
  0
TABLE
  2
DIMSTYLE
  5
A
330
0
100
AcDbSymbolTable
 70
     1
100
AcDbDimStyleTable
  0
DIMSTYLE
105
27
330
A
100
AcDbSymbolTableRecord
100
AcDbDimStyleTableRecord
  2
Standard
 70
     0
178
     0
340
11
  0
ENDTAB
  0
TABLE
  2
BLOCK_RECORD
  5
1
330
0
100
AcDbSymbolTable
 70
    62
  0
BLOCK_RECORD
  5
1F
330
1
100
AcDbSymbolTableRecord
100
AcDbBlockTableRecord
  2
*Model_Space
340
22
 70
     0
280
     1
281
     0
  0
BLOCK_RECORD
  5
5FD
330
1
100
AcDbSymbolTableRecord
100
AcDbBlockTableRecord
  2
*Paper_Space
340
5FE
 70
     0
280
     1
281
     0
  0
BLOCK_RECORD
  5
40
330
1
100
AcDbSymbolTableRecord
100
AcDbBlockTableRecord
  2
PD_4173
340
0
102
{BLKREFS
331
A5
102
}
 70
     0
280
     1
281
     0
  0
BLOCK_RECORD
  5
66
330
1
100
AcDbSymbolTableRecord
100
AcDbBlockTableRecord
  2
PD_4174
340
0
102
{BLKREFS
331
7E
102
}
 70
     0
280
     1
281
     0
  0
BLOCK_RECORD
  5
A6
330
1
100
AcDbSymbolTableRecord
100
AcDbBlockTableRecord
  2
PD_4175
340
0
102
{BLKREFS
331
10B
102
}
 70
     0
280
     1
281
     0
  0
BLOCK_RECORD
  5
CC
330
1
100
AcDbSymbolTableRecord
100
AcDbBlockTableRecord
  2
PD_4176
340
0
102
{BLKREFS
331
E4
102
}
 70
     0
280
     1
281
     0
  0
BLOCK_RECORD
  5
10C
330
1
100
AcDbSymbolTableRecord
100
AcDbBlockTableRecord
  2
PD_4177
340
0
102
{BLKREFS
331
171
102
}
 70
     0
280
     1
281
     0
  0
BLOCK_RECORD
  5
132
330
1
100
AcDbSymbolTableRecord
100
AcDbBlockTableRecord
  2
PD_4178
340
0
102
{BLKREFS
331
14A
102
}
 70
     0
280
     1
281
     0
  0
BLOCK_RECORD
  5
172
330
1
100
AcDbSymbolTableRecord
100
AcDbBlockTableRecord
  2
PD_4179
340
0
102
{BLKREFS
331
1D7
102
}
 70
     0
280
     1
281
     0
  0
BLOCK_RECORD
  5
198
330
1
100
AcDbSymbolTableRecord
100
AcDbBlockTableRecord
  2
PD_4180
340
0
102
{BLKREFS
331
1B0
102
}
 70
     0
280
     1
281
     0
  0
BLOCK_RECORD
  5
1D8
330
1
100
AcDbSymbolTableRecord
100
AcDbBlockTableRecord
  2
PD_4181
340
0
102
{BLKREFS
331
23B
102
}
 70
     0
280
     1
281
     0
  0
BLOCK_RECORD
  5
1FE
330
1
100
AcDbSymbolTableRecord
100
AcDbBlockTableRecord
  2
PD_4182
340
0
102
{BLKREFS
331
216
102
}
 70
     0
280
     1
281
     0
  0
BLOCK_RECORD
  5
23C
330
1
100
AcDbSymbolTableRecord
100
AcDbBlockTableRecord
  2
PD_4183
340
0
102
{BLKREFS
331
29F
102
}
 70
     0
280
     1
281
     0
  0
BLOCK_RECORD
  5
262
330
1
100
AcDbSymbolTableRecord
100
AcDbBlockTableRecord
  2
PD_4184
340
0
102
{BLKREFS
331
27A
102
}
 70
     0
280
     1
281
     0
  0
BLOCK_RECORD
  5
2A0
330
1
100
AcDbSymbolTableRecord
100
AcDbBlockTableRecord
  2
PD_4185
340
0
102
{BLKREFS
331
303
102
}
 70
     0
280
     1
281
     0
  0
BLOCK_RECORD
  5
2C6
330
1
100
AcDbSymbolTableRecord
100
AcDbBlockTableRecord
  2
PD_4186
340
0
102
{BLKREFS
331
2DE
102
}
 70
     0
280
     1
281
     0
  0
BLOCK_RECORD
  5
304
330
1
100
AcDbSymbolTableRecord
100
AcDbBlockTableRecord
  2
PD_4187
340
0
102
{BLKREFS
331
367
102
}
 70
     0
280
     1
281
     0
  0
BLOCK_RECORD
  5
32A
330
1
100
AcDbSymbolTableRecord
100
AcDbBlockTableRecord
  2
PD_4188
340
0
102
{BLKREFS
331
342
102
}
 70
     0
280
     1
281
     0
  0
BLOCK_RECORD
  5
368
330
1
100
AcDbSymbolTableRecord
100
AcDbBlockTableRecord
  2
PD_4189
340
0
102
{BLKREFS
331
3C8
102
}
 70
     0
280
     1
281
     0
  0
BLOCK_RECORD
  5
38E
330
1
100
AcDbSymbolTableRecord
100
AcDbBlockTableRecord
  2
PD_4190
340
0
102
{BLKREFS
331
3A6
102
}
 70
     0
280
     1
281
     0
  0
BLOCK_RECORD
  5
3C9
330
1
100
AcDbSymbolTableRecord
100
AcDbBlockTableRecord
  2
PD_4191
340
0
102
{BLKREFS
331
429
102
}
 70
     0
280
     1
281
     0
  0
BLOCK_RECORD
  5
3EF
330
1
100
AcDbSymbolTableRecord
100
AcDbBlockTableRecord
  2
PD_4192
340
0
102
{BLKREFS
331
407
102
}
 70
     0
280
     1
281
     0
  0
BLOCK_RECORD
  5
42A
330
1
100
AcDbSymbolTableRecord
100
AcDbBlockTableRecord
  2
PD_4193
340
0
102
{BLKREFS
331
48A
102
}
 70
     0
280
     1
281
     0
  0
BLOCK_RECORD
  5
450
330
1
100
AcDbSymbolTableRecord
100
AcDbBlockTableRecord
  2
PD_4194
340
0
102
{BLKREFS
331
468
102
}
 70
     0
280
     1
281
     0
  0
BLOCK_RECORD
  5
48B
330
1
100
AcDbSymbolTableRecord
100
AcDbBlockTableRecord
  2
PD_4195
340
0
102
{BLKREFS
331
4EB
102
}
 70
     0
280
     1
281
     0
  0
BLOCK_RECORD
  5
4B1
330
1
100
AcDbSymbolTableRecord
100
AcDbBlockTableRecord
  2
PD_4196
340
0
102
{BLKREFS
331
4C9
102
}
 70
     0
280
     1
281
     0
  0
BLOCK_RECORD
  5
4EC
330
1
100
AcDbSymbolTableRecord
100
AcDbBlockTableRecord
  2
PD_4197
340
0
102
{BLKREFS
331
558
102
}
 70
     0
280
     1
281
     0
  0
BLOCK_RECORD
  5
512
330
1
100
AcDbSymbolTableRecord
100
AcDbBlockTableRecord
  2
PD_4198
340
0
102
{BLKREFS
331
52A
102
}
 70
     0
280
     1
281
     0
  0
BLOCK_RECORD
  5
559
330
1
100
AcDbSymbolTableRecord
100
AcDbBlockTableRecord
  2
PD_4199
340
0
102
{BLKREFS
331
584
102
}
 70
     0
280
     1
281
     0
  0
BLOCK_RECORD
  5
585
330
1
100
AcDbSymbolTableRecord
100
AcDbBlockTableRecord
  2
PD_4200
340
0
102
{BLKREFS
331
5CA
102
}
 70
     0
280
     1
281
     0
  0
BLOCK_RECORD
  5
59C
330
1
100
AcDbSymbolTableRecord
100
AcDbBlockTableRecord
  2
PD_4201
340
0
102
{BLKREFS
331
5C7
102
}
 70
     0
280
     1
281
     0
  0
BLOCK_RECORD
  5
5E0
330
1
100
AcDbSymbolTableRecord
100
AcDbBlockTableRecord
  2
PD_4202
340
0
102
{BLKREFS
331
5FC
102
}
 70
     0
280
     1
281
     0
  0
BLOCK_RECORD
  5
6B1
330
1
100
AcDbSymbolTableRecord
100
AcDbBlockTableRecord
  2
*Paper_Space32
340
6B2
 70
     0
280
     1
281
     0
  0
BLOCK_RECORD
  5
603
330
1
100
AcDbSymbolTableRecord
100
AcDbBlockTableRecord
  2
*Paper_Space33
340
604
 70
     0
280
     1
281
     0
  0
BLOCK_RECORD
  5
609
330
1
100
AcDbSymbolTableRecord
100
AcDbBlockTableRecord
  2
*Paper_Space34
340
60A
 70
     0
280
     1
281
     0
  0
BLOCK_RECORD
  5
60F
330
1
100
AcDbSymbolTableRecord
100
AcDbBlockTableRecord
  2
*Paper_Space35
340
610
 70
     0
280
     1
281
     0
  0
BLOCK_RECORD
  5
615
330
1
100
AcDbSymbolTableRecord
100
AcDbBlockTableRecord
  2
*Paper_Space36
340
616
 70
     0
280
     1
281
     0
  0
BLOCK_RECORD
  5
61B
330
1
100
AcDbSymbolTableRecord
100
AcDbBlockTableRecord
  2
*Paper_Space37
340
61C
 70
     0
280
     1
281
     0
  0
BLOCK_RECORD
  5
621
330
1
100
AcDbSymbolTableRecord
100
AcDbBlockTableRecord
  2
*Paper_Space38
340
622
 70
     0
280
     1
281
     0
  0
BLOCK_RECORD
  5
627
330
1
100
AcDbSymbolTableRecord
100
AcDbBlockTableRecord
  2
*Paper_Space39
340
628
 70
     0
280
     1
281
     0
  0
BLOCK_RECORD
  5
62D
330
1
100
AcDbSymbolTableRecord
100
AcDbBlockTableRecord
  2
*Paper_Space40
340
62E
 70
     0
280
     1
281
     0
  0
BLOCK_RECORD
  5
633
330
1
100
AcDbSymbolTableRecord
100
AcDbBlockTableRecord
  2
*Paper_Space41
340
634
 70
     0
280
     1
281
     0
  0
BLOCK_RECORD
  5
639
330
1
100
AcDbSymbolTableRecord
100
AcDbBlockTableRecord
  2
*Paper_Space42
340
63A
 70
     0
280
     1
281
     0
  0
BLOCK_RECORD
  5
63F
330
1
100
AcDbSymbolTableRecord
100
AcDbBlockTableRecord
  2
*Paper_Space43
340
640
 70
     0
280
     1
281
     0
  0
BLOCK_RECORD
  5
645
330
1
100
AcDbSymbolTableRecord
100
AcDbBlockTableRecord
  2
*Paper_Space44
340
646
 70
     0
280
     1
281
     0
  0
BLOCK_RECORD
  5
64B
330
1
100
AcDbSymbolTableRecord
100
AcDbBlockTableRecord
  2
*Paper_Space45
340
64C
 70
     0
280
     1
281
     0
  0
BLOCK_RECORD
  5
651
330
1
100
AcDbSymbolTableRecord
100
AcDbBlockTableRecord
  2
*Paper_Space46
340
652
 70
     0
280
     1
281
     0
  0
BLOCK_RECORD
  5
657
330
1
100
AcDbSymbolTableRecord
100
AcDbBlockTableRecord
  2
*Paper_Space47
340
658
 70
     0
280
     1
281
     0
  0
BLOCK_RECORD
  5
65D
330
1
100
AcDbSymbolTableRecord
100
AcDbBlockTableRecord
  2
*Paper_Space48
340
65E
 70
     0
280
     1
281
     0
  0
BLOCK_RECORD
  5
663
330
1
100
AcDbSymbolTableRecord
100
AcDbBlockTableRecord
  2
*Paper_Space49
340
664
 70
     0
280
     1
281
     0
  0
BLOCK_RECORD
  5
669
330
1
100
AcDbSymbolTableRecord
100
AcDbBlockTableRecord
  2
*Paper_Space50
340
66A
 70
     0
280
     1
281
     0
  0
BLOCK_RECORD
  5
66F
330
1
100
AcDbSymbolTableRecord
100
AcDbBlockTableRecord
  2
*Paper_Space51
340
670
 70
     0
280
     1
281
     0
  0
BLOCK_RECORD
  5
675
330
1
100
AcDbSymbolTableRecord
100
AcDbBlockTableRecord
  2
*Paper_Space52
340
676
 70
     0
280
     1
281
     0
  0
BLOCK_RECORD
  5
67B
330
1
100
AcDbSymbolTableRecord
100
AcDbBlockTableRecord
  2
*Paper_Space53
340
67C
 70
     0
280
     1
281
     0
  0
BLOCK_RECORD
  5
681
330
1
100
AcDbSymbolTableRecord
100
AcDbBlockTableRecord
  2
*Paper_Space54
340
682
 70
     0
280
     1
281
     0
  0
BLOCK_RECORD
  5
687
330
1
100
AcDbSymbolTableRecord
100
AcDbBlockTableRecord
  2
*Paper_Space55
340
688
 70
     0
280
     1
281
     0
  0
BLOCK_RECORD
  5
68D
330
1
100
AcDbSymbolTableRecord
100
AcDbBlockTableRecord
  2
*Paper_Space56
340
68E
 70
     0
280
     1
281
     0
  0
BLOCK_RECORD
  5
693
330
1
100
AcDbSymbolTableRecord
100
AcDbBlockTableRecord
  2
*Paper_Space57
340
694
 70
     0
280
     1
281
     0
  0
BLOCK_RECORD
  5
699
330
1
100
AcDbSymbolTableRecord
100
AcDbBlockTableRecord
  2
*Paper_Space58
340
69A
 70
     0
280
     1
281
     0
  0
BLOCK_RECORD
  5
69F
330
1
100
AcDbSymbolTableRecord
100
AcDbBlockTableRecord
  2
*Paper_Space59
340
6A0
 70
     0
280
     1
281
     0
  0
BLOCK_RECORD
  5
6A5
330
1
100
AcDbSymbolTableRecord
100
AcDbBlockTableRecord
  2
*Paper_Space60
340
6A6
 70
     0
280
     1
281
     0
  0
BLOCK_RECORD
  5
6AB
330
1
100
AcDbSymbolTableRecord
100
AcDbBlockTableRecord
  2
*Paper_Space61
340
6AC
 70
     0
280
     1
281
     0
  0
ENDTAB
  0
ENDSEC
  0
SECTION
  2
BLOCKS
  0
BLOCK
  5
20
330
1F
100
AcDbEntity
  8
0
100
AcDbBlockBegin
  2
*Model_Space
 70
     0
 10
0.0
 20
0.0
 30
0.0
  3
*Model_Space
  1

  0
ENDBLK
  5
21
330
1F
100
AcDbEntity
  8
0
100
AcDbBlockEnd
  0
BLOCK
  5
5FF
330
5FD
100
AcDbEntity
 67
     1
  8
0
100
AcDbBlockBegin
  2
*Paper_Space
 70
     0
 10
0.0
 20
0.0
 30
0.0
  3
*Paper_Space
  1

  0
ENDBLK
  5
600
330
5FD
100
AcDbEntity
 67
     1
  8
0
100
AcDbBlockEnd
  0
BLOCK
  5
A3
330
40
100
AcDbEntity
  8
0
100
AcDbBlockBegin
  2
PD_4173
 70
     0
 10
0.0
 20
0.0
 30
0.0
  3
PD_4173
  1

  0
POLYLINE
  5
41
330
40
100
AcDbEntity
  8
DRYERJACK 486AL
 62
   253
420
 11184810
100
AcDb2dPolyline
 66
     1
 10
0.0
 20
0.0
 30
0.0
  0
VERTEX
  5
42
330
41
100
AcDbEntity
  8
DRYERJACK 486AL
 62
   253
420
 11184810
100
AcDbVertex
100
AcDb2dVertex
 10
70.3893655162725
 20
-54.16133232193066
 30
0.0
  0
VERTEX
  5
43
330
41
100
AcDbEntity
  8
DRYERJACK 486AL
 62
   253
420
 11184810
100
AcDbVertex
100
AcDb2dVertex
 10
70.99213526121368
 20
-53.22527250526025
 30
0.0
  0
VERTEX
  5
44
330
41
100
AcDbEntity
  8
DRYERJACK 486AL
 62
   253
420
 11184810
100
AcDbVertex
100
AcDb2dVertex
 10
71.80618235956787
 20
-52.47526702886671
 30
0.0
  0
VERTEX
  5
45
330
41
100
AcDbEntity
  8
DRYERJACK 486AL
 62
   253
420
 11184810
100
AcDbVertex
100
AcDb2dVertex
 10
72.55459973465308
 20
-52.03801229256142
 30
0.0
  0
VERTEX
  5
46
330
41
100
AcDbEntity
  8
DRYERJACK 486AL
 62
   253
420
 11184810
100
AcDbVertex
100
AcDb2dVertex
 10
73.96032015195127
 20
-51.61438052286397
 30
0.0
  0
VERTEX
  5
47
330
41
100
AcDbEntity
  8
DRYERJACK 486AL
 62
   253
420
 11184810
100
AcDbVertex
100
AcDb2dVertex
 10
75.33769959912789
 20
-51.57403566825202
 30
0.0
  0
VERTEX
  5
48
330
41
100
AcDbEntity
  8
DRYERJACK 486AL
 62
   253
420
 11184810
100
AcDbVertex
100
AcDb2dVertex
 10
76.45271395431635
 20
-51.78293103559867
 30
0.0
  0
VERTEX
  5
49
330
41
100
AcDbEntity
  8
DRYERJACK 486AL
 62
   253
420
 11184810
100
AcDbVertex
100
AcDb2dVertex
 10
77.41658741986271
 20
-52.14754856290512
 30
0.0
  0
VERTEX
  5
4A
330
41
100
AcDbEntity
  8
DRYERJACK 486AL
 62
   253
420
 11184810
100
AcDbVertex
100
AcDb2dVertex
 10
78.28469159056822
 20
-52.65012645388527
 30
0.0
  0
VERTEX
  5
4B
330
41
100
AcDbEntity
  8
DRYERJACK 486AL
 62
   253
420
 11184810
100
AcDbVertex
100
AcDb2dVertex
 10
79.08207594721728
 20
-53.30769821455181
 30
0.0
  0
VERTEX
  5
4C
330
41
100
AcDbEntity
  8
DRYERJACK 486AL
 62
   253
420
 11184810
100
AcDbVertex
100
AcDb2dVertex
 10
79.81473560637264
 20
-54.18700557626966
 30
0.0
  0
VERTEX
  5
4D
330
41
100
AcDbEntity
  8
DRYERJACK 486AL
 62
   253
420
 11184810
100
AcDbVertex
100
AcDb2dVertex
 10
79.62864633062648
 20
-54.422497041076
 30
0.0
  0
VERTEX
  5
4E
330
41
100
AcDbEntity
  8
DRYERJACK 486AL
 62
   253
420
 11184810
100
AcDbVertex
100
AcDb2dVertex
 10
79.45589114740693
 20
-54.53506935557881
 30
0.0
  0
VERTEX
  5
4F
330
41
100
AcDbEntity
  8
DRYERJACK 486AL
 62
   253
420
 11184810
100
AcDbVertex
100
AcDb2dVertex
 10
79.20447064872745
 20
-54.62507124941726
 30
0.0
  0
VERTEX
  5
50
330
41
100
AcDbEntity
  8
DRYERJACK 486AL
 62
   253
420
 11184810
100
AcDbVertex
100
AcDb2dVertex
 10
78.90021036350903
 20
-54.66642480316379
 30
0.0
  0
VERTEX
  5
51
330
41
100
AcDbEntity
  8
DRYERJACK 486AL
 62
   253
420
 11184810
100
AcDbVertex
100
AcDb2dVertex
 10
78.54437572969474
 20
-54.65323560523233
 30
0.0
  0
VERTEX
  5
52
330
41
100
AcDbEntity
  8
DRYERJACK 486AL
 62
   253
420
 11184810
100
AcDbVertex
100
AcDb2dVertex
 10
78.27513264059831
 20
-54.68584028771505
 30
0.0
  0
VERTEX
  5
53
330
41
100
AcDbEntity
  8
DRYERJACK 486AL
 62
   253
420
 11184810
100
AcDbVertex
100
AcDb2dVertex
 10
77.98061090952689
 20
-54.78249033917005
 30
0.0
  0
VERTEX
  5
54
330
41
100
AcDbEntity
  8
DRYERJACK 486AL
 62
   253
420
 11184810
100
AcDbVertex
100
AcDb2dVertex
 10
77.66997600870967
 20
-54.98056119465608
 30
0.0
  0
VERTEX
  5
55
330
41
100
AcDbEntity
  8
DRYERJACK 486AL
 62
   253
420
 11184810
100
AcDbVertex
100
AcDb2dVertex
 10
75.66387993482675
 20
-56.85739173521996
 30
0.0
  0
VERTEX
  5
56
330
41
100
AcDbEntity
  8
DRYERJACK 486AL
 62
   253
420
 11184810
100
AcDbVertex
100
AcDb2dVertex
 10
70.40405588547085
 20
-54.22747971054197
 30
0.0
  0
SEQEND
  5
57
330
41
100
AcDbEntity
  8
DRYERJACK 486AL
 62
   253
420
 11184810
  0
POLYLINE
  5
58
330
40
100
AcDbEntity
  8
DRYERJACK 486AL
 62
   253
420
 11184810
100
AcDb2dPolyline
 66
     1
 10
0.0
 20
0.0
 30
0.0
  0
VERTEX
  5
59
330
58
100
AcDbEntity
  8
DRYERJACK 486AL
 62
   253
420
 11184810
100
AcDbVertex
100
AcDb2dVertex
 10
75.08105798936444
 20
-55.36059461437159
 30
0.0
  0
VERTEX
  5
5A
330
58
100
AcDbEntity
  8
DRYERJACK 486AL
 62
   253
420
 11184810
100
AcDbVertex
100
AcDb2dVertex
 10
74.64875151371447
 20
-56.2252075656715
 30
0.0
  0
VERTEX
  5
5B
330
58
100
AcDbEntity
  8
DRYERJACK 486AL
 62
   253
420
 11184810
100
AcDbVertex
100
AcDb2dVertex
 10
71.07104274971482
 20
-54.43635318367166
 30
0.0
  0
VERTEX
  5
5C
330
58
100
AcDbEntity
  8
DRYERJACK 486AL
 62
   253
420
 11184810
100
AcDbVertex
100
AcDb2dVertex
 10
71.50334922536477
 20
-53.57174023237175
 30
0.0
  0
VERTEX
  5
5D
330
58
100
AcDbEntity
  8
DRYERJACK 486AL
 62
   253
420
 11184810
100
AcDbVertex
100
AcDb2dVertex
 10
75.08105798936444
 20
-55.36059461437159
 30
0.0
  0
SEQEND
  5
5E
330
58
100
AcDbEntity
  8
DRYERJACK 486AL
 62
   253
420
 11184810
  0
POLYLINE
  5
5F
330
40
100
AcDbEntity
  8
DRYERJACK 486AL
 62
   253
420
 11184810
100
AcDb2dPolyline
 66
     1
 10
0.0
 20
0.0
 30
0.0
  0
VERTEX
  5
60
330
5F
100
AcDbEntity
  8
DRYERJACK 486AL
 62
   253
420
 11184810
100
AcDbVertex
100
AcDb2dVertex
 10
74.57918495441447
 20
-56.3643406842715
 30
0.0
  0
VERTEX
  5
61
330
5F
100
AcDbEntity
  8
DRYERJACK 486AL
 62
   253
420
 11184810
100
AcDbVertex
100
AcDb2dVertex
 10
73.62512928401455
 20
-58.27245202507132
 30
0.0
  0
VERTEX
  5
62
330
5F
100
AcDbEntity
  8
DRYERJACK 486AL
 62
   253
420
 11184810
100
AcDbVertex
100
AcDb2dVertex
 10
70.0474205200149
 20
-56.48359764307148
 30
0.0
  0
VERTEX
  5
63
330
5F
100
AcDbEntity
  8
DRYERJACK 486AL
 62
   253
420
 11184810
100
AcDbVertex
100
AcDb2dVertex
 10
71.00147619041482
 20
-54.57548630227166
 30
0.0
  0
VERTEX
  5
64
330
5F
100
AcDbEntity
  8
DRYERJACK 486AL
 62
   253
420
 11184810
100
AcDbVertex
100
AcDb2dVertex
 10
74.57918495441447
 20
-56.3643406842715
 30
0.0
  0
SEQEND
  5
65
330
5F
100
AcDbEntity
  8
DRYERJACK 486AL
 62
   253
420
 11184810
  0
INSERT
  5
7E
330
40
100
AcDbEntity
  8
DRYERJACK 486AL
100
AcDbBlockReference
  2
PD_4174
 10
0.0
 20
0.0
 30
0.0
  0
POLYLINE
  5
7F
330
40
100
AcDbEntity
  8
DRYERJACK 486AL
 62
     7
100
AcDb2dPolyline
 66
     1
 10
0.0
 20
0.0
 30
0.0
  0
VERTEX
  5
80
330
7F
100
AcDbEntity
  8
DRYERJACK 486AL
 62
     7
100
AcDbVertex
100
AcDb2dVertex
 10
70.4332837371941
 20
-54.07349588008749
 30
0.0
  0
VERTEX
  5
81
330
7F
100
AcDbEntity
  8
DRYERJACK 486AL
 62
     7
100
AcDbVertex
100
AcDb2dVertex
 10
70.76520263708402
 20
-53.51895323575209
 30
0.0
  0
VERTEX
  5
82
330
7F
100
AcDbEntity
  8
DRYERJACK 486AL
 62
     7
100
AcDbVertex
100
AcDb2dVertex
 10
71.17866361646664
 20
-53.01797593624441
 30
0.0
  0
VERTEX
  5
83
330
7F
100
AcDbEntity
  8
DRYERJACK 486AL
 62
     7
100
AcDbVertex
100
AcDb2dVertex
 10
71.66632464823134
 20
-52.57946007841083
 30
0.0
  0
VERTEX
  5
84
330
7F
100
AcDbEntity
  8
DRYERJACK 486AL
 62
     7
100
AcDbVertex
100
AcDb2dVertex
 10
72.21952609895553
 20
-52.21119260098848
 30
0.0
  0
VERTEX
  5
85
330
7F
100
AcDbEntity
  8
DRYERJACK 486AL
 62
     7
100
AcDbVertex
100
AcDb2dVertex
 10
72.82844450221458
 20
-51.91971300815798
 30
0.0
  0
VERTEX
  5
86
330
7F
100
AcDbEntity
  8
DRYERJACK 486AL
 62
     7
100
AcDbVertex
100
AcDb2dVertex
 10
73.4822669986389
 20
-51.71019724439649
 30
0.0
  0
VERTEX
  5
87
330
7F
100
AcDbEntity
  8
DRYERJACK 486AL
 62
     7
100
AcDbVertex
100
AcDb2dVertex
 10
74.16938334510121
 20
-51.58636578272164
 30
0.0
  0
VERTEX
  5
88
330
7F
100
AcDbEntity
  8
DRYERJACK 486AL
 62
     7
100
AcDbVertex
100
AcDb2dVertex
 10
74.87759208343391
 20
-51.55041755844798
 30
0.0
  0
VERTEX
  5
89
330
7F
100
AcDbEntity
  8
DRYERJACK 486AL
 62
     7
100
AcDbVertex
100
AcDb2dVertex
 10
75.59431720763862
 20
-51.60299092162636
 30
0.0
  0
VERTEX
  5
8A
330
7F
100
AcDbEntity
  8
DRYERJACK 486AL
 62
     7
100
AcDbVertex
100
AcDb2dVertex
 10
76.30683148212316
 20
-51.74315230155237
 30
0.0
  0
VERTEX
  5
8B
330
7F
100
AcDbEntity
  8
DRYERJACK 486AL
 62
     7
100
AcDbVertex
100
AcDb2dVertex
 10
77.00248244539581
 20
-51.96841278463421
 30
0.0
  0
VERTEX
  5
8C
330
7F
100
AcDbEntity
  8
DRYERJACK 486AL
 62
     7
100
AcDbVertex
100
AcDb2dVertex
 10
77.66891708595959
 20
-52.27477231123817
 30
0.0
  0
VERTEX
  5
8D
330
7F
100
AcDbEntity
  8
DRYERJACK 486AL
 62
     7
100
AcDbVertex
100
AcDb2dVertex
 10
78.29430120072772
 20
-52.65679070668735
 30
0.0
  0
VERTEX
  5
8E
330
7F
100
AcDbEntity
  8
DRYERJACK 486AL
 62
     7
100
AcDbVertex
100
AcDb2dVertex
 10
78.86752954070658
 20
-53.1076842850815
 30
0.0
  0
VERTEX
  5
8F
330
7F
100
AcDbEntity
  8
DRYERJACK 486AL
 62
     7
100
AcDbVertex
100
AcDb2dVertex
 10
79.37842301228747
 20
-53.61944631049716
 30
0.0
  0
VERTEX
  5
90
330
7F
100
AcDbEntity
  8
DRYERJACK 486AL
 62
     7
100
AcDbVertex
100
AcDb2dVertex
 10
79.81790943234783
 20
-54.18298917648015
 30
0.0
  0
SEQEND
  5
91
330
7F
100
AcDbEntity
  8
DRYERJACK 486AL
 62
     7
  0
LINE
  5
92
330
40
100
AcDbEntity
  8
DRYERJACK 486AL
 62
     7
100
AcDbLine
 10
79.81790943234782
 20
-54.18298917648015
 30
0.0
 11
79.60770395315805
 21
-54.44899911179872
 31
0.0
  0
LINE
  5
93
330
40
100
AcDbEntity
  8
DRYERJACK 486AL
 62
     7
100
AcDbLine
 10
75.71464655741497
 20
-56.80232488299846
 30
0.0
 11
77.6763187722953
 21
-54.97465169619463
 31
0.0
  0
POLYLINE
  5
94
330
40
100
AcDbEntity
  8
DRYERJACK 486AL
 62
     7
100
AcDb2dPolyline
 66
     1
 10
0.0
 20
0.0
 30
0.0
  0
VERTEX
  5
95
330
94
100
AcDbEntity
  8
DRYERJACK 486AL
 62
     7
100
AcDbVertex
100
AcDb2dVertex
 10
79.60770395315805
 20
-54.44899911179874
 30
0.0
  0
VERTEX
  5
96
330
94
100
AcDbEntity
  8
DRYERJACK 486AL
 62
     7
100
AcDbVertex
100
AcDb2dVertex
 10
79.15969812178648
 20
-54.63542787333866
 30
0.0
  0
VERTEX
  5
97
330
94
100
AcDbEntity
  8
DRYERJACK 486AL
 62
     7
100
AcDbVertex
100
AcDb2dVertex
 10
78.65260812675737
 20
-54.65331282144321
 30
0.0
  0
SEQEND
  5
98
330
94
100
AcDbEntity
  8
DRYERJACK 486AL
 62
     7
  0
POLYLINE
  5
99
330
40
100
AcDbEntity
  8
DRYERJACK 486AL
 62
     7
100
AcDb2dPolyline
 66
     1
 10
0.0
 20
0.0
 30
0.0
  0
VERTEX
  5
9A
330
99
100
AcDbEntity
  8
DRYERJACK 486AL
 62
     7
100
AcDbVertex
100
AcDb2dVertex
 10
77.67631877229529
 20
-54.97465169619463
 30
0.0
  0
VERTEX
  5
9B
330
99
100
AcDbEntity
  8
DRYERJACK 486AL
 62
     7
100
AcDbVertex
100
AcDb2dVertex
 10
78.12302022198807
 20
-54.72687728396285
 30
0.0
  0
VERTEX
  5
9C
330
99
100
AcDbEntity
  8
DRYERJACK 486AL
 62
     7
100
AcDbVertex
100
AcDb2dVertex
 10
78.65260812675734
 20
-54.6533128214432
 30
0.0
  0
SEQEND
  5
9D
330
99
100
AcDbEntity
  8
DRYERJACK 486AL
 62
     7
  0
LINE
  5
9E
330
40
100
AcDbEntity
  8
DRYERJACK 486AL
 62
     7
100
AcDbLine
 10
75.70886178691859
 20
-56.79530889744677
 30
0.0
 11
76.1964966756434
 21
-56.08382869483089
 31
0.0
  0
LINE
  5
9F
330
40
100
AcDbEntity
  8
DRYERJACK 486AL
 62
     7
100
AcDbLine
 10
76.20132513858563
 20
-56.07417176894643
 30
0.0
 11
76.1332508303212
 21
-56.40226933548181
 31
0.0
  0
LINE
  5
A0
330
40
100
AcDbEntity
  8
DRYERJACK 486AL
 62
     7
100
AcDbLine
 10
67.80793763409609
 20
-52.92942058485458
 30
0.0
 11
78.45982526578089
 21
-58.25536440069703
 31
0.0
  0
LINE
  5
A1
330
40
100
AcDbEntity
  8
DRYERJACK 486AL
 62
     7
100
AcDbLine
 10
70.43328373719409
 20
-54.07349588008749
 30
0.0
 11
70.3893655162725
 21
-54.16133232193066
 31
0.0
  0
ARC
  5
A2
330
40
100
AcDbEntity
  8
DRYERJACK 486AL
 62
     7
100
AcDbCircle
 10
72.29383973603342
 20
-56.02432074125905
 30
0.0
 40
3.895122246426079
100
AcDbArc
 50
356.0083103131961
 51
88.28131161783075
  0
ENDBLK
  5
A4
330
40
100
AcDbEntity
  8
0
100
AcDbBlockEnd
  0
BLOCK
  5
7C
330
66
100
AcDbEntity
  8
0
100
AcDbBlockBegin
  2
PD_4174
 70
     0
 10
0.0
 20
0.0
 30
0.0
  3
PD_4174
  1

  0
POLYLINE
  5
67
330
66
100
AcDbEntity
  8
DRYERJACK 486AL
 62
     7
100
AcDb2dPolyline
 66
     1
 10
0.0
 20
0.0
 30
0.0
  0
VERTEX
  5
68
330
67
100
AcDbEntity
  8
DRYERJACK 486AL
 62
     7
100
AcDbVertex
100
AcDb2dVertex
 10
74.58103555811155
 20
-56.36063947687735
 30
0.0
  0
VERTEX
  5
69
330
67
100
AcDbEntity
  8
DRYERJACK 486AL
 62
     7
100
AcDbVertex
100
AcDb2dVertex
 10
73.62076858777414
 20
-58.28117341755217
 30
0.0
  0
VERTEX
  5
6A
330
67
100
AcDbEntity
  8
DRYERJACK 486AL
 62
     7
100
AcDbVertex
100
AcDb2dVertex
 10
70.04305982377448
 20
-56.49231903555233
 30
0.0
  0
VERTEX
  5
6B
330
67
100
AcDbEntity
  8
DRYERJACK 486AL
 62
     7
100
AcDbVertex
100
AcDb2dVertex
 10
71.0033267941119
 20
-54.57178509487751
 30
0.0
  0
VERTEX
  5
6C
330
67
100
AcDbEntity
  8
DRYERJACK 486AL
 62
     7
100
AcDbVertex
100
AcDb2dVertex
 10
74.58103555811155
 20
-56.36063947687735
 30
0.0
  0
SEQEND
  5
6D
330
67
100
AcDbEntity
  8
DRYERJACK 486AL
 62
     7
  0
POLYLINE
  5
6E
330
66
100
AcDbEntity
  8
DRYERJACK 486AL
 62
     7
100
AcDb2dPolyline
 66
     1
 10
0.0
 20
0.0
 30
0.0
  0
VERTEX
  5
6F
330
6E
100
AcDbEntity
  8
DRYERJACK 486AL
 62
     7
100
AcDbVertex
100
AcDb2dVertex
 10
75.0829085930615
 20
-55.35689340697744
 30
0.0
  0
VERTEX
  5
70
330
6E
100
AcDbEntity
  8
DRYERJACK 486AL
 62
     7
100
AcDbVertex
100
AcDb2dVertex
 10
74.64563307746155
 20
-56.23144443817735
 30
0.0
  0
VERTEX
  5
71
330
6E
100
AcDbEntity
  8
DRYERJACK 486AL
 62
     7
100
AcDbVertex
100
AcDb2dVertex
 10
71.0679243134619
 20
-54.4425900561775
 30
0.0
  0
VERTEX
  5
72
330
6E
100
AcDbEntity
  8
DRYERJACK 486AL
 62
     7
100
AcDbVertex
100
AcDb2dVertex
 10
71.50519982906185
 20
-53.5680390249776
 30
0.0
  0
VERTEX
  5
73
330
6E
100
AcDbEntity
  8
DRYERJACK 486AL
 62
     7
100
AcDbVertex
100
AcDb2dVertex
 10
75.0829085930615
 20
-55.35689340697744
 30
0.0
  0
SEQEND
  5
74
330
6E
100
AcDbEntity
  8
DRYERJACK 486AL
 62
     7
  0
LINE
  5
75
330
66
100
AcDbEntity
  8
DRYERJACK 486AL
 62
     7
100
AcDbLine
 10
71.50650307221645
 20
-53.5654325386684
 30
0.0
 11
70.03925986422169
 21
-56.49991895465791
 31
0.0
  0
LINE
  5
76
330
66
100
AcDbEntity
  8
DRYERJACK 486AL
 62
     7
100
AcDbLine
 10
75.0842118362161
 20
-55.35428692066825
 30
0.0
 11
73.61696862822134
 21
-58.28877333665775
 31
0.0
  0
LINE
  5
77
330
66
100
AcDbEntity
  8
DRYERJACK 486AL
 62
     7
100
AcDbLine
 10
71.50650307221645
 20
-53.5654325386684
 30
0.0
 11
72.14098290219013
 21
-53.88267245365525
 31
0.0
  0
LINE
  5
78
330
66
100
AcDbEntity
  8
DRYERJACK 486AL
 62
     7
100
AcDbLine
 10
72.14098290219013
 20
-53.88267245365525
 30
0.0
 11
75.0842118362161
 21
-55.35428692066825
 31
0.0
  0
LINE
  5
79
330
66
100
AcDbEntity
  8
DRYERJACK 486AL
 62
     7
100
AcDbLine
 10
71.06307129499812
 20
-54.45229609310503
 30
0.0
 11
74.64078005899779
 21
-56.24115047510489
 31
0.0
  0
LINE
  5
7A
330
66
100
AcDbEntity
  8
DRYERJACK 486AL
 62
     7
100
AcDbLine
 10
71.00483226048617
 20
-54.56877416212897
 30
0.0
 11
74.58254102448582
 21
-56.35762854412881
 31
0.0
  0
LINE
  5
7B
330
66
100
AcDbEntity
  8
DRYERJACK 486AL
 62
     7
100
AcDbLine
 10
70.03925986422169
 20
-56.49991895465791
 30
0.0
 11
73.61696862822134
 21
-58.28877333665775
 31
0.0
  0
ENDBLK
  5
7D
330
66
100
AcDbEntity
  8
0
100
AcDbBlockEnd
  0
BLOCK
  5
109
330
A6
100
AcDbEntity
  8
0
100
AcDbBlockBegin
  2
PD_4175
 70
     0
 10
0.0
 20
0.0
 30
0.0
  3
PD_4175
  1

  0
POLYLINE
  5
A7
330
A6
100
AcDbEntity
  8
DRYERJACK 486AL
 62
   253
420
 11184810
100
AcDb2dPolyline
 66
     1
 10
0.0
 20
0.0
 30
0.0
  0
VERTEX
  5
A8
330
A7
100
AcDbEntity
  8
DRYERJACK 486AL
 62
   253
420
 11184810
100
AcDbVertex
100
AcDb2dVertex
 10
52.47349562314091
 20
-54.31455098985789
 30
0.0
  0
VERTEX
  5
A9
330
A7
100
AcDbEntity
  8
DRYERJACK 486AL
 62
   253
420
 11184810
100
AcDbVertex
100
AcDb2dVertex
 10
53.01043412848598
 20
-53.33923750831501
 30
0.0
  0
VERTEX
  5
AA
330
A7
100
AcDbEntity
  8
DRYERJACK 486AL
 62
   253
420
 11184810
100
AcDbVertex
100
AcDb2dVertex
 10
53.77095025706998
 20
-52.53500115554129
 30
0.0
  0
VERTEX
  5
AB
330
A7
100
AcDbEntity
  8
DRYERJACK 486AL
 62
   253
420
 11184810
100
AcDbVertex
100
AcDb2dVertex
 10
54.48751008834717
 20
-52.04728988854939
 30
0.0
  0
VERTEX
  5
AC
330
A7
100
AcDbEntity
  8
DRYERJACK 486AL
 62
   253
420
 11184810
100
AcDbVertex
100
AcDb2dVertex
 10
55.86075265809735
 20
-51.52794548207915
 30
0.0
  0
VERTEX
  5
AD
330
A7
100
AcDbEntity
  8
DRYERJACK 486AL
 62
   253
420
 11184810
100
AcDbVertex
100
AcDb2dVertex
 10
57.23209235796401
 20
-51.39292964460866
 30
0.0
  0
VERTEX
  5
AE
330
A7
100
AcDbEntity
  8
DRYERJACK 486AL
 62
   253
420
 11184810
100
AcDbVertex
100
AcDb2dVertex
 10
58.35883693352923
 20
-51.5246146787226
 30
0.0
  0
VERTEX
  5
AF
330
A7
100
AcDbEntity
  8
DRYERJACK 486AL
 62
   253
420
 11184810
100
AcDbVertex
100
AcDb2dVertex
 10
59.34551278403874
 20
-51.82205167175594
 30
0.0
  0
VERTEX
  5
B0
330
A7
100
AcDbEntity
  8
DRYERJACK 486AL
 62
   253
420
 11184810
100
AcDbVertex
100
AcDb2dVertex
 10
60.24613824306412
 20
-52.26371123550804
 30
0.0
  0
VERTEX
  5
B1
330
A7
100
AcDbEntity
  8
DRYERJACK 486AL
 62
   253
420
 11184810
100
AcDbVertex
100
AcDb2dVertex
 10
61.08687537318835
 20
-52.86486305550463
 30
0.0
  0
VERTEX
  5
B2
330
A7
100
AcDbEntity
  8
DRYERJACK 486AL
 62
   253
420
 11184810
100
AcDbVertex
100
AcDb2dVertex
 10
61.87829705523276
 20
-53.69167823056786
 30
0.0
  0
VERTEX
  5
B3
330
A7
100
AcDbEntity
  8
DRYERJACK 486AL
 62
   253
420
 11184810
100
AcDbVertex
100
AcDb2dVertex
 10
61.70885105529038
 20
-53.93941498934194
 30
0.0
  0
VERTEX
  5
B4
330
A7
100
AcDbEntity
  8
DRYERJACK 486AL
 62
   253
420
 11184810
100
AcDbVertex
100
AcDb2dVertex
 10
61.54425045581407
 20
-54.06360646237363
 30
0.0
  0
VERTEX
  5
B5
330
A7
100
AcDbEntity
  8
DRYERJACK 486AL
 62
   253
420
 11184810
100
AcDbVertex
100
AcDb2dVertex
 10
61.29961805968961
 20
-54.17069333746649
 30
0.0
  0
VERTEX
  5
B6
330
A7
100
AcDbEntity
  8
DRYERJACK 486AL
 62
   253
420
 11184810
100
AcDbVertex
100
AcDb2dVertex
 10
60.99892398241458
 20
-54.23288264089062
 30
0.0
  0
VERTEX
  5
B7
330
A7
100
AcDbEntity
  8
DRYERJACK 486AL
 62
   253
420
 11184810
100
AcDbVertex
100
AcDb2dVertex
 10
60.64302511541374
 20
-54.24420686410224
 30
0.0
  0
VERTEX
  5
B8
330
A7
100
AcDbEntity
  8
DRYERJACK 486AL
 62
   253
420
 11184810
100
AcDbVertex
100
AcDb2dVertex
 10
60.37666331436412
 20
-54.29525877187842
 30
0.0
  0
VERTEX
  5
B9
330
A7
100
AcDbEntity
  8
DRYERJACK 486AL
 62
   253
420
 11184810
100
AcDbVertex
100
AcDb2dVertex
 10
60.08948922876247
 20
-54.41194350557747
 30
0.0
  0
VERTEX
  5
BA
330
A7
100
AcDbEntity
  8
DRYERJACK 486AL
 62
   253
420
 11184810
100
AcDbVertex
100
AcDb2dVertex
 10
59.79321811978603
 20
-54.63091732909199
 30
0.0
  0
VERTEX
  5
BB
330
A7
100
AcDbEntity
  8
DRYERJACK 486AL
 62
   253
420
 11184810
100
AcDbVertex
100
AcDb2dVertex
 10
57.92100570154859
 20
-56.64132400353355
 30
0.0
  0
VERTEX
  5
BC
330
A7
100
AcDbEntity
  8
DRYERJACK 486AL
 62
   253
420
 11184810
100
AcDbVertex
100
AcDb2dVertex
 10
52.49270225968028
 20
-54.37953090275508
 30
0.0
  0
SEQEND
  5
BD
330
A7
100
AcDbEntity
  8
DRYERJACK 486AL
 62
   253
420
 11184810
  0
POLYLINE
  5
BE
330
A6
100
AcDbEntity
  8
DRYERJACK 486AL
 62
   253
420
 11184810
100
AcDb2dPolyline
 66
     1
 10
0.0
 20
0.0
 30
0.0
  0
VERTEX
  5
BF
330
BE
100
AcDbEntity
  8
DRYERJACK 486AL
 62
   253
420
 11184810
100
AcDbVertex
100
AcDb2dVertex
 10
57.23658208004665
 20
-55.18817316916618
 30
0.0
  0
VERTEX
  5
C0
330
BE
100
AcDbEntity
  8
DRYERJACK 486AL
 62
   253
420
 11184810
100
AcDbVertex
100
AcDb2dVertex
 10
56.86478720825177
 20
-56.08048086147387
 30
0.0
  0
VERTEX
  5
C1
330
BE
100
AcDbEntity
  8
DRYERJACK 486AL
 62
   253
420
 11184810
100
AcDbVertex
100
AcDb2dVertex
 10
53.17247951594408
 20
-54.54201932301232
 30
0.0
  0
VERTEX
  5
C2
330
BE
100
AcDbEntity
  8
DRYERJACK 486AL
 62
   253
420
 11184810
100
AcDbVertex
100
AcDb2dVertex
 10
53.54427438773895
 20
-53.64971163070463
 30
0.0
  0
VERTEX
  5
C3
330
BE
100
AcDbEntity
  8
DRYERJACK 486AL
 62
   253
420
 11184810
100
AcDbVertex
100
AcDb2dVertex
 10
57.23658208004665
 20
-55.18817316916618
 30
0.0
  0
SEQEND
  5
C4
330
BE
100
AcDbEntity
  8
DRYERJACK 486AL
 62
   253
420
 11184810
  0
POLYLINE
  5
C5
330
A6
100
AcDbEntity
  8
DRYERJACK 486AL
 62
   253
420
 11184810
100
AcDb2dPolyline
 66
     1
 10
0.0
 20
0.0
 30
0.0
  0
VERTEX
  5
C6
330
C5
100
AcDbEntity
  8
DRYERJACK 486AL
 62
   253
420
 11184810
100
AcDbVertex
100
AcDb2dVertex
 10
56.80495814842271
 20
-56.22407060506362
 30
0.0
  0
VERTEX
  5
C7
330
C5
100
AcDbEntity
  8
DRYERJACK 486AL
 62
   253
420
 11184810
100
AcDbVertex
100
AcDb2dVertex
 10
55.98444532790988
 20
-58.19330137429439
 30
0.0
  0
VERTEX
  5
C8
330
C5
100
AcDbEntity
  8
DRYERJACK 486AL
 62
   253
420
 11184810
100
AcDbVertex
100
AcDb2dVertex
 10
52.2921376356022
 20
-56.65483983583285
 30
0.0
  0
VERTEX
  5
C9
330
C5
100
AcDbEntity
  8
DRYERJACK 486AL
 62
   253
420
 11184810
100
AcDbVertex
100
AcDb2dVertex
 10
53.11265045611502
 20
-54.68560906660208
 30
0.0
  0
VERTEX
  5
CA
330
C5
100
AcDbEntity
  8
DRYERJACK 486AL
 62
   253
420
 11184810
100
AcDbVertex
100
AcDb2dVertex
 10
56.80495814842271
 20
-56.22407060506362
 30
0.0
  0
SEQEND
  5
CB
330
C5
100
AcDbEntity
  8
DRYERJACK 486AL
 62
   253
420
 11184810
  0
INSERT
  5
E4
330
A6
100
AcDbEntity
  8
DRYERJACK 486AL
100
AcDbBlockReference
  2
PD_4176
 10
0.0
 20
0.0
 30
0.0
  0
POLYLINE
  5
E5
330
A6
100
AcDbEntity
  8
DRYERJACK 486AL
 62
     7
100
AcDb2dPolyline
 66
     1
 10
0.0
 20
0.0
 30
0.0
  0
VERTEX
  5
E6
330
E5
100
AcDbEntity
  8
DRYERJACK 486AL
 62
     7
100
AcDbVertex
100
AcDb2dVertex
 10
52.51126644138381
 20
-54.22390102607496
 30
0.0
  0
VERTEX
  5
E7
330
E5
100
AcDbEntity
  8
DRYERJACK 486AL
 62
     7
100
AcDbVertex
100
AcDb2dVertex
 10
52.80424510867059
 20
-53.64783575112298
 30
0.0
  0
VERTEX
  5
E8
330
E5
100
AcDbEntity
  8
DRYERJACK 486AL
 62
     7
100
AcDbVertex
100
AcDb2dVertex
 10
53.1822580352642
 20
-53.1195986230998
 30
0.0
  0
VERTEX
  5
E9
330
E5
100
AcDbEntity
  8
DRYERJACK 486AL
 62
     7
100
AcDbVertex
100
AcDb2dVertex
 10
53.63859266231725
 20
-52.64856980484588
 30
0.0
  0
VERTEX
  5
EA
330
E5
100
AcDbEntity
  8
DRYERJACK 486AL
 62
     7
100
AcDbVertex
100
AcDb2dVertex
 10
54.16514563456671
 20
-52.24311358350304
 30
0.0
  0
VERTEX
  5
EB
330
E5
100
AcDbEntity
  8
DRYERJACK 486AL
 62
     7
100
AcDbVertex
100
AcDb2dVertex
 10
54.7525666955429
 20
-51.91042984181163
 30
0.0
  0
VERTEX
  5
EC
330
E5
100
AcDbEntity
  8
DRYERJACK 486AL
 62
     7
100
AcDbVertex
100
AcDb2dVertex
 10
55.39042472460785
 20
-51.65642620630128
 30
0.0
  0
VERTEX
  5
ED
330
E5
100
AcDbEntity
  8
DRYERJACK 486AL
 62
     7
100
AcDbVertex
100
AcDb2dVertex
 10
56.06739296742283
 20
-51.48561314270177
 30
0.0
  0
VERTEX
  5
EE
330
E5
100
AcDbEntity
  8
DRYERJACK 486AL
 62
     7
100
AcDbVertex
100
AcDb2dVertex
 10
56.77145017061782
 20
-51.40102386141584
 30
0.0
  0
VERTEX
  5
EF
330
E5
100
AcDbEntity
  8
DRYERJACK 486AL
 62
     7
100
AcDbVertex
100
AcDb2dVertex
 10
57.49009404901708
 20
-51.40416045533119
 30
0.0
  0
VERTEX
  5
F0
330
E5
100
AcDbEntity
  8
DRYERJACK 486AL
 62
     7
100
AcDbVertex
100
AcDb2dVertex
 10
58.21056329477976
 20
-51.49496722642866
 30
0.0
  0
VERTEX
  5
F1
330
E5
100
AcDbEntity
  8
DRYERJACK 486AL
 62
     7
100
AcDbVertex
100
AcDb2dVertex
 10
58.92006418613155
 20
-51.6718316748389
 30
0.0
  0
VERTEX
  5
F2
330
E5
100
AcDbEntity
  8
DRYERJACK 486AL
 62
     7
100
AcDbVertex
100
AcDb2dVertex
 10
59.60599777168629
 20
-51.93161313278458
 30
0.0
  0
VERTEX
  5
F3
330
E5
100
AcDbEntity
  8
DRYERJACK 486AL
 62
     7
100
AcDbVertex
100
AcDb2dVertex
 10
60.25618359613538
 20
-52.26969853494109
 30
0.0
  0
VERTEX
  5
F4
330
E5
100
AcDbEntity
  8
DRYERJACK 486AL
 62
     7
100
AcDbVertex
100
AcDb2dVertex
 10
60.85907599449934
 20
-52.68008433487449
 30
0.0
  0
VERTEX
  5
F5
330
E5
100
AcDbEntity
  8
DRYERJACK 486AL
 62
     7
100
AcDbVertex
100
AcDb2dVertex
 10
61.40396911409965
 20
-53.15548311292692
 30
0.0
  0
VERTEX
  5
F6
330
E5
100
AcDbEntity
  8
DRYERJACK 486AL
 62
     7
100
AcDbVertex
100
AcDb2dVertex
 10
61.88118702357646
 20
-53.68745298246126
 30
0.0
  0
SEQEND
  5
F7
330
E5
100
AcDbEntity
  8
DRYERJACK 486AL
 62
     7
  0
LINE
  5
F8
330
A6
100
AcDbEntity
  8
DRYERJACK 486AL
 62
     7
100
AcDbLine
 10
61.88118702357646
 20
-53.68745298246126
 30
0.0
 11
61.68978170227644
 21
-53.96729513823417
 31
0.0
  0
LINE
  5
F9
330
A6
100
AcDbEntity
  8
DRYERJACK 486AL
 62
     7
100
AcDbLine
 10
57.96786330930266
 20
-56.58289479184828
 30
0.0
 11
59.79913926725053
 21
-54.62458543879976
 31
0.0
  0
POLYLINE
  5
FA
330
A6
100
AcDbEntity
  8
DRYERJACK 486AL
 62
     7
100
AcDb2dPolyline
 66
     1
 10
0.0
 20
0.0
 30
0.0
  0
VERTEX
  5
FB
330
FA
100
AcDbEntity
  8
DRYERJACK 486AL
 62
     7
100
AcDbVertex
100
AcDb2dVertex
 10
61.68978170227644
 20
-53.96729513823419
 30
0.0
  0
VERTEX
  5
FC
330
FA
100
AcDbEntity
  8
DRYERJACK 486AL
 62
     7
100
AcDbVertex
100
AcDb2dVertex
 10
61.25566418632102
 20
-54.18410586309099
 30
0.0
  0
VERTEX
  5
FD
330
FA
100
AcDbEntity
  8
DRYERJACK 486AL
 62
     7
100
AcDbVertex
100
AcDb2dVertex
 10
60.75100634987815
 20
-54.2368372820376
 30
0.0
  0
SEQEND
  5
FE
330
FA
100
AcDbEntity
  8
DRYERJACK 486AL
 62
     7
  0
POLYLINE
  5
FF
330
A6
100
AcDbEntity
  8
DRYERJACK 486AL
 62
     7
100
AcDb2dPolyline
 66
     1
 10
0.0
 20
0.0
 30
0.0
  0
VERTEX
  5
100
330
FF
100
AcDbEntity
  8
DRYERJACK 486AL
 62
     7
100
AcDbVertex
100
AcDb2dVertex
 10
59.79913926725053
 20
-54.62458543879976
 30
0.0
  0
VERTEX
  5
101
330
FF
100
AcDbEntity
  8
DRYERJACK 486AL
 62
     7
100
AcDbVertex
100
AcDb2dVertex
 10
60.22773478340424
 20
-54.34666417648367
 30
0.0
  0
VERTEX
  5
102
330
FF
100
AcDbEntity
  8
DRYERJACK 486AL
 62
     7
100
AcDbVertex
100
AcDb2dVertex
 10
60.75100634987815
 20
-54.23683728203759
 30
0.0
  0
SEQEND
  5
103
330
FF
100
AcDbEntity
  8
DRYERJACK 486AL
 62
     7
  0
LINE
  5
104
330
A6
100
AcDbEntity
  8
DRYERJACK 486AL
 62
     7
100
AcDbLine
 10
57.96160953233182
 20
-56.5762934361878
 30
0.0
 11
58.39913756043795
 21
-55.83294890769677
 31
0.0
  0
LINE
  5
105
330
A6
100
AcDbEntity
  8
DRYERJACK 486AL
 62
     7
100
AcDbLine
 10
58.40329016480937
 20
-55.82298265720539
 30
0.0
 11
58.3579509691299
 21
-56.15498639505674
 31
0.0
  0
LINE
  5
106
330
A6
100
AcDbEntity
  8
DRYERJACK 486AL
 62
     7
100
AcDbLine
 10
49.81342677304864
 20
-53.26316611665855
 30
0.0
 11
60.80650900372702
 21
-57.84361704610789
 31
0.0
  0
LINE
  5
107
330
A6
100
AcDbEntity
  8
DRYERJACK 486AL
 62
     7
100
AcDbLine
 10
52.51126644138381
 20
-54.22390102607497
 30
0.0
 11
52.47349562314091
 21
-54.31455098985789
 31
0.0
  0
ARC
  5
108
330
A6
100
AcDbEntity
  8
DRYERJACK 486AL
 62
     7
100
AcDbCircle
 10
54.50163436437913
 20
-56.04209292873357
 30
0.0
 40
3.895122246426079
100
AcDbArc
 50
359.9534965422338
 51
92.22649784686847
  0
ENDBLK
  5
10A
330
A6
100
AcDbEntity
  8
0
100
AcDbBlockEnd
  0
BLOCK
  5
E2
330
CC
100
AcDbEntity
  8
0
100
AcDbBlockBegin
  2
PD_4176
 70
     0
 10
0.0
 20
0.0
 30
0.0
  3
PD_4176
  1

  0
POLYLINE
  5
CD
330
CC
100
AcDbEntity
  8
DRYERJACK 486AL
 62
     7
100
AcDb2dPolyline
 66
     1
 10
0.0
 20
0.0
 30
0.0
  0
VERTEX
  5
CE
330
CD
100
AcDbEntity
  8
DRYERJACK 486AL
 62
     7
100
AcDbVertex
100
AcDb2dVertex
 10
56.80654971598658
 20
-56.22025084291032
 30
0.0
  0
VERTEX
  5
CF
330
CD
100
AcDbEntity
  8
DRYERJACK 486AL
 62
     7
100
AcDbVertex
100
AcDb2dVertex
 10
55.98069501513187
 20
-58.2023021249616
 30
0.0
  0
VERTEX
  5
D0
330
CD
100
AcDbEntity
  8
DRYERJACK 486AL
 62
     7
100
AcDbVertex
100
AcDb2dVertex
 10
52.28838732282419
 20
-56.66384058650006
 30
0.0
  0
VERTEX
  5
D1
330
CD
100
AcDbEntity
  8
DRYERJACK 486AL
 62
     7
100
AcDbVertex
100
AcDb2dVertex
 10
53.11424202367889
 20
-54.68178930444877
 30
0.0
  0
VERTEX
  5
D2
330
CD
100
AcDbEntity
  8
DRYERJACK 486AL
 62
     7
100
AcDbVertex
100
AcDb2dVertex
 10
56.80654971598658
 20
-56.22025084291032
 30
0.0
  0
SEQEND
  5
D3
330
CD
100
AcDbEntity
  8
DRYERJACK 486AL
 62
     7
  0
POLYLINE
  5
D4
330
CC
100
AcDbEntity
  8
DRYERJACK 486AL
 62
     7
100
AcDb2dPolyline
 66
     1
 10
0.0
 20
0.0
 30
0.0
  0
VERTEX
  5
D5
330
D4
100
AcDbEntity
  8
DRYERJACK 486AL
 62
     7
100
AcDbVertex
100
AcDb2dVertex
 10
57.23817364761051
 20
-55.18435340701289
 30
0.0
  0
VERTEX
  5
D6
330
D4
100
AcDbEntity
  8
DRYERJACK 486AL
 62
     7
100
AcDbVertex
100
AcDb2dVertex
 10
56.86210527154214
 20
-56.08691750957698
 30
0.0
  0
VERTEX
  5
D7
330
D4
100
AcDbEntity
  8
DRYERJACK 486AL
 62
     7
100
AcDbVertex
100
AcDb2dVertex
 10
53.16979757923446
 20
-54.54845597111543
 30
0.0
  0
VERTEX
  5
D8
330
D4
100
AcDbEntity
  8
DRYERJACK 486AL
 62
     7
100
AcDbVertex
100
AcDb2dVertex
 10
53.54586595530282
 20
-53.64589186855134
 30
0.0
  0
VERTEX
  5
D9
330
D4
100
AcDbEntity
  8
DRYERJACK 486AL
 62
     7
100
AcDbVertex
100
AcDb2dVertex
 10
57.23817364761051
 20
-55.18435340701289
 30
0.0
  0
SEQEND
  5
DA
330
D4
100
AcDbEntity
  8
DRYERJACK 486AL
 62
     7
  0
LINE
  5
DB
330
CC
100
AcDbEntity
  8
DRYERJACK 486AL
 62
     7
100
AcDbLine
 10
53.54698677848933
 20
-53.64320189290375
 30
0.0
 11
52.28511925825811
 21
-56.67168394145864
 31
0.0
  0
LINE
  5
DC
330
CC
100
AcDbEntity
  8
DRYERJACK 486AL
 62
     7
100
AcDbLine
 10
57.23929447079701
 20
-55.18166343136529
 30
0.0
 11
55.9774269505658
 21
-58.21014547992019
 31
0.0
  0
LINE
  5
DD
330
CC
100
AcDbEntity
  8
DRYERJACK 486AL
 62
     7
100
AcDbLine
 10
53.54698677848933
 20
-53.64320189290375
 30
0.0
 11
54.2017898693387
 21
-53.916036514091
 31
0.0
  0
LINE
  5
DE
330
CC
100
AcDbEntity
  8
DRYERJACK 486AL
 62
     7
100
AcDbLine
 10
54.2017898693387
 20
-53.916036514091
 30
0.0
 11
57.23929447079701
 21
-55.18166343136529
 31
0.0
  0
LINE
  5
DF
330
CC
100
AcDbEntity
  8
DRYERJACK 486AL
 62
     7
100
AcDbLine
 10
53.16562385647251
 20
-54.55847290574409
 30
0.0
 11
56.8579315487802
 21
-56.09693444420563
 31
0.0
  0
LINE
  5
E0
330
CC
100
AcDbEntity
  8
DRYERJACK 486AL
 62
     7
100
AcDbLine
 10
53.11553676412147
 20
-54.67868192738658
 30
0.0
 11
56.80784445642917
 21
-56.21714346584812
 31
0.0
  0
LINE
  5
E1
330
CC
100
AcDbEntity
  8
DRYERJACK 486AL
 62
     7
100
AcDbLine
 10
52.28511925825811
 20
-56.67168394145864
 30
0.0
 11
55.9774269505658
 21
-58.21014547992019
 31
0.0
  0
ENDBLK
  5
E3
330
CC
100
AcDbEntity
  8
0
100
AcDbBlockEnd
  0
BLOCK
  5
16F
330
10C
100
AcDbEntity
  8
0
100
AcDbBlockBegin
  2
PD_4177
 70
     0
 10
0.0
 20
0.0
 30
0.0
  3
PD_4177
  1

  0
POLYLINE
  5
10D
330
10C
100
AcDbEntity
  8
DRYERJACK 486AL
 62
   253
420
 11184810
100
AcDb2dPolyline
 66
     1
 10
0.0
 20
0.0
 30
0.0
  0
VERTEX
  5
10E
330
10D
100
AcDbEntity
  8
DRYERJACK 486AL
 62
   253
420
 11184810
100
AcDbVertex
100
AcDb2dVertex
 10
34.23015811798822
 20
-54.53037515882986
 30
0.0
  0
VERTEX
  5
10F
330
10D
100
AcDbEntity
  8
DRYERJACK 486AL
 62
   253
420
 11184810
100
AcDbVertex
100
AcDb2dVertex
 10
34.69449087299422
 20
-53.51847870245203
 30
0.0
  0
VERTEX
  5
110
330
10D
100
AcDbEntity
  8
DRYERJACK 486AL
 62
   253
420
 11184810
100
AcDbVertex
100
AcDb2dVertex
 10
35.39428959416932
 20
-52.66088751616284
 30
0.0
  0
VERTEX
  5
111
330
10D
100
AcDbEntity
  8
DRYERJACK 486AL
 62
   253
420
 11184810
100
AcDbVertex
100
AcDb2dVertex
 10
36.07334783785266
 20
-52.12218521114035
 30
0.0
  0
VERTEX
  5
112
330
10D
100
AcDbEntity
  8
DRYERJACK 486AL
 62
   253
420
 11184810
100
AcDbVertex
100
AcDb2dVertex
 10
37.40502947377034
 20
-51.50401226732479
 30
0.0
  0
VERTEX
  5
113
330
10D
100
AcDbEntity
  8
DRYERJACK 486AL
 62
   253
420
 11184810
100
AcDbVertex
100
AcDb2dVertex
 10
38.76285993602571
 20
-51.26928202945673
 30
0.0
  0
VERTEX
  5
114
330
10D
100
AcDbEntity
  8
DRYERJACK 486AL
 62
   253
420
 11184810
100
AcDbVertex
100
AcDb2dVertex
 10
39.89621009853132
 20
-51.3183910502549
 30
0.0
  0
VERTEX
  5
115
330
10D
100
AcDbEntity
  8
DRYERJACK 486AL
 62
   253
420
 11184810
100
AcDbVertex
100
AcDb2dVertex
 10
40.90196085292193
 20
-51.54303169405317
 30
0.0
  0
VERTEX
  5
116
330
10D
100
AcDbEntity
  8
DRYERJACK 486AL
 62
   253
420
 11184810
100
AcDbVertex
100
AcDb2dVertex
 10
41.8324153841143
 20
-51.91778995357783
 30
0.0
  0
VERTEX
  5
117
330
10D
100
AcDbEntity
  8
DRYERJACK 486AL
 62
   253
420
 11184810
100
AcDbVertex
100
AcDb2dVertex
 10
42.71478031444921
 20
-52.45598560793582
 30
0.0
  0
VERTEX
  5
118
330
10D
100
AcDbEntity
  8
DRYERJACK 486AL
 62
   253
420
 11184810
100
AcDbVertex
100
AcDb2dVertex
 10
43.5644292126996
 20
-53.22284176278283
 30
0.0
  0
VERTEX
  5
119
330
10D
100
AcDbEntity
  8
DRYERJACK 486AL
 62
   253
420
 11184810
100
AcDbVertex
100
AcDb2dVertex
 10
43.41351375073414
 20
-53.48228341688663
 30
0.0
  0
VERTEX
  5
11A
330
10D
100
AcDbEntity
  8
DRYERJACK 486AL
 62
   253
420
 11184810
100
AcDbVertex
100
AcDb2dVertex
 10
43.25841497397037
 20
-53.6181555949369
 30
0.0
  0
VERTEX
  5
11B
330
10D
100
AcDbEntity
  8
DRYERJACK 486AL
 62
   253
420
 11184810
100
AcDbVertex
100
AcDb2dVertex
 10
43.02224956849714
 20
-53.74280915207991
 30
0.0
  0
VERTEX
  5
11C
330
10D
100
AcDbEntity
  8
DRYERJACK 486AL
 62
   253
420
 11184810
100
AcDbVertex
100
AcDb2dVertex
 10
42.72689552886003
 20
-53.82677598385713
 30
0.0
  0
VERTEX
  5
11D
330
10D
100
AcDbEntity
  8
DRYERJACK 486AL
 62
   253
420
 11184810
100
AcDbVertex
100
AcDb2dVertex
 10
42.37277197902931
 20
-53.8640419605533
 30
0.0
  0
VERTEX
  5
11E
330
10D
100
AcDbEntity
  8
DRYERJACK 486AL
 62
   253
420
 11184810
100
AcDbVertex
100
AcDb2dVertex
 10
42.11084591772293
 20
-53.93439567228559
 30
0.0
  0
VERTEX
  5
11F
330
10D
100
AcDbEntity
  8
DRYERJACK 486AL
 62
   253
420
 11184810
100
AcDbVertex
100
AcDb2dVertex
 10
41.83295266053373
 20
-54.07172600443529
 30
0.0
  0
VERTEX
  5
120
330
10D
100
AcDbEntity
  8
DRYERJACK 486AL
 62
   253
420
 11184810
100
AcDbVertex
100
AcDb2dVertex
 10
41.55345124677016
 20
-54.31173655650093
 30
0.0
  0
VERTEX
  5
121
330
10D
100
AcDbEntity
  8
DRYERJACK 486AL
 62
   253
420
 11184810
100
AcDbVertex
100
AcDb2dVertex
 10
39.83294137466827
 20
-56.45340882733081
 30
0.0
  0
VERTEX
  5
122
330
10D
100
AcDbEntity
  8
DRYERJACK 486AL
 62
   253
420
 11184810
100
AcDbVertex
100
AcDb2dVertex
 10
34.2540554949468
 20
-54.59378020075699
 30
0.0
  0
SEQEND
  5
123
330
10D
100
AcDbEntity
  8
DRYERJACK 486AL
 62
   253
420
 11184810
  0
POLYLINE
  5
124
330
10C
100
AcDbEntity
  8
DRYERJACK 486AL
 62
   253
420
 11184810
100
AcDb2dPolyline
 66
     1
 10
0.0
 20
0.0
 30
0.0
  0
VERTEX
  5
125
330
124
100
AcDbEntity
  8
DRYERJACK 486AL
 62
   253
420
 11184810
100
AcDbVertex
100
AcDb2dVertex
 10
39.04429800602075
 20
-55.05407874540564
 30
0.0
  0
VERTEX
  5
126
330
124
100
AcDbEntity
  8
DRYERJACK 486AL
 62
   253
420
 11184810
100
AcDbVertex
100
AcDb2dVertex
 10
38.7386111655378
 20
-55.97113926685446
 30
0.0
  0
VERTEX
  5
127
330
124
100
AcDbEntity
  8
DRYERJACK 486AL
 62
   253
420
 11184810
100
AcDbVertex
100
AcDb2dVertex
 10
34.94387797333575
 20
-54.7062282027871
 30
0.0
  0
VERTEX
  5
128
330
124
100
AcDbEntity
  8
DRYERJACK 486AL
 62
   253
420
 11184810
100
AcDbVertex
100
AcDb2dVertex
 10
35.24956481381869
 20
-53.78916768133828
 30
0.0
  0
VERTEX
  5
129
330
124
100
AcDbEntity
  8
DRYERJACK 486AL
 62
   253
420
 11184810
100
AcDbVertex
100
AcDb2dVertex
 10
39.04429800602075
 20
-55.05407874540564
 30
0.0
  0
SEQEND
  5
12A
330
124
100
AcDbEntity
  8
DRYERJACK 486AL
 62
   253
420
 11184810
  0
POLYLINE
  5
12B
330
10C
100
AcDbEntity
  8
DRYERJACK 486AL
 62
   253
420
 11184810
100
AcDb2dPolyline
 66
     1
 10
0.0
 20
0.0
 30
0.0
  0
VERTEX
  5
12C
330
12B
100
AcDbEntity
  8
DRYERJACK 486AL
 62
   253
420
 11184810
100
AcDbVertex
100
AcDb2dVertex
 10
38.68942017971296
 20
-56.11871222432899
 30
0.0
  0
VERTEX
  5
12D
330
12B
100
AcDbEntity
  8
DRYERJACK 486AL
 62
   253
420
 11184810
100
AcDbVertex
100
AcDb2dVertex
 10
38.0148009455437
 20
-58.14256992683677
 30
0.0
  0
VERTEX
  5
12E
330
12B
100
AcDbEntity
  8
DRYERJACK 486AL
 62
   253
420
 11184810
100
AcDbVertex
100
AcDb2dVertex
 10
34.22006775334165
 20
-56.87765886276942
 30
0.0
  0
VERTEX
  5
12F
330
12B
100
AcDbEntity
  8
DRYERJACK 486AL
 62
   253
420
 11184810
100
AcDbVertex
100
AcDb2dVertex
 10
34.89468698751091
 20
-54.85380116026164
 30
0.0
  0
VERTEX
  5
130
330
12B
100
AcDbEntity
  8
DRYERJACK 486AL
 62
   253
420
 11184810
100
AcDbVertex
100
AcDb2dVertex
 10
38.68942017971296
 20
-56.11871222432899
 30
0.0
  0
SEQEND
  5
131
330
12B
100
AcDbEntity
  8
DRYERJACK 486AL
 62
   253
420
 11184810
  0
INSERT
  5
14A
330
10C
100
AcDbEntity
  8
DRYERJACK 486AL
100
AcDbBlockReference
  2
PD_4178
 10
0.0
 20
0.0
 30
0.0
  0
POLYLINE
  5
14B
330
10C
100
AcDbEntity
  8
DRYERJACK 486AL
 62
     7
100
AcDb2dPolyline
 66
     1
 10
0.0
 20
0.0
 30
0.0
  0
VERTEX
  5
14C
330
14B
100
AcDbEntity
  8
DRYERJACK 486AL
 62
     7
100
AcDbVertex
100
AcDb2dVertex
 10
34.26121298981953
 20
-54.43721054333596
 30
0.0
  0
VERTEX
  5
14D
330
14B
100
AcDbEntity
  8
DRYERJACK 486AL
 62
     7
100
AcDbVertex
100
AcDb2dVertex
 10
34.51137176384879
 20
-53.84130091237938
 30
0.0
  0
VERTEX
  5
14E
330
14B
100
AcDbEntity
  8
DRYERJACK 486AL
 62
     7
100
AcDbVertex
100
AcDb2dVertex
 10
34.84982836189678
 20
-53.28688647594052
 30
0.0
  0
VERTEX
  5
14F
330
14B
100
AcDbEntity
  8
DRYERJACK 486AL
 62
     7
100
AcDbVertex
100
AcDb2dVertex
 10
35.27057264602414
 20
-52.78381224001951
 30
0.0
  0
VERTEX
  5
150
330
14B
100
AcDbEntity
  8
DRYERJACK 486AL
 62
     7
100
AcDbVertex
100
AcDb2dVertex
 10
35.766133255946
 20
-52.34101153777952
 30
0.0
  0
VERTEX
  5
151
330
14B
100
AcDbEntity
  8
DRYERJACK 486AL
 62
     7
100
AcDbVertex
100
AcDb2dVertex
 10
36.32771028159969
 20
-51.96634739601766
 30
0.0
  0
VERTEX
  5
152
330
14B
100
AcDbEntity
  8
DRYERJACK 486AL
 62
     7
100
AcDbVertex
100
AcDb2dVertex
 10
36.94533152741498
 20
-51.66647290758514
 30
0.0
  0
VERTEX
  5
153
330
14B
100
AcDbEntity
  8
DRYERJACK 486AL
 62
     7
100
AcDbVertex
100
AcDb2dVertex
 10
37.60802959342675
 20
-51.44671308919127
 30
0.0
  0
VERTEX
  5
154
330
14B
100
AcDbEntity
  8
DRYERJACK 486AL
 62
     7
100
AcDbVertex
100
AcDb2dVertex
 10
38.30403662871451
 20
-51.31097032249943
 30
0.0
  0
VERTEX
  5
155
330
14B
100
AcDbEntity
  8
DRYERJACK 486AL
 62
     7
100
AcDbVertex
100
AcDb2dVertex
 10
39.02099329883784
 20
-51.26165505764354
 30
0.0
  0
VERTEX
  5
156
330
14B
100
AcDbEntity
  8
DRYERJACK 486AL
 62
     7
100
AcDbVertex
100
AcDb2dVertex
 10
39.74616825653139
 20
-51.2996430096961
 30
0.0
  0
VERTEX
  5
157
330
14B
100
AcDbEntity
  8
DRYERJACK 486AL
 62
     7
100
AcDbVertex
100
AcDb2dVertex
 10
40.46668421841215
 20
-51.42425960817102
 30
0.0
  0
VERTEX
  5
158
330
14B
100
AcDbEntity
  8
DRYERJACK 486AL
 62
     7
100
AcDbVertex
100
AcDb2dVertex
 10
41.16974663314508
 20
-51.63329197569882
 30
0.0
  0
VERTEX
  5
159
330
14B
100
AcDbEntity
  8
DRYERJACK 486AL
 62
     7
100
AcDbVertex
100
AcDb2dVertex
 10
41.84287088049555
 20
-51.9230282231632
 30
0.0
  0
VERTEX
  5
15A
330
14B
100
AcDbEntity
  8
DRYERJACK 486AL
 62
     7
100
AcDbVertex
100
AcDb2dVertex
 10
42.47410396678506
 20
-52.2883233635161
 30
0.0
  0
VERTEX
  5
15B
330
14B
100
AcDbEntity
  8
DRYERJACK 486AL
 62
     7
100
AcDbVertex
100
AcDb2dVertex
 10
43.05223677999639
 20
-52.72269067380758
 30
0.0
  0
VERTEX
  5
15C
330
14B
100
AcDbEntity
  8
DRYERJACK 486AL
 62
     7
100
AcDbVertex
100
AcDb2dVertex
 10
43.56700313541128
 20
-53.218416883071
 30
0.0
  0
SEQEND
  5
15D
330
14B
100
AcDbEntity
  8
DRYERJACK 486AL
 62
     7
  0
LINE
  5
15E
330
10C
100
AcDbEntity
  8
DRYERJACK 486AL
 62
     7
100
AcDbLine
 10
43.56700313541127
 20
-53.21841688307099
 30
0.0
 11
43.3965298135479
 21
-53.51148082780399
 31
0.0
  0
LINE
  5
15F
330
10C
100
AcDbEntity
  8
DRYERJACK 486AL
 62
     7
100
AcDbLine
 10
39.87541013806946
 20
-56.39171594023862
 30
0.0
 11
41.55889453308307
 21
-54.30498944926266
 31
0.0
  0
POLYLINE
  5
160
330
10C
100
AcDbEntity
  8
DRYERJACK 486AL
 62
     7
100
AcDb2dPolyline
 66
     1
 10
0.0
 20
0.0
 30
0.0
  0
VERTEX
  5
161
330
160
100
AcDbEntity
  8
DRYERJACK 486AL
 62
     7
100
AcDbVertex
100
AcDb2dVertex
 10
43.39652981354792
 20
-53.51148082780399
 30
0.0
  0
VERTEX
  5
162
330
160
100
AcDbEntity
  8
DRYERJACK 486AL
 62
     7
100
AcDbVertex
100
AcDb2dVertex
 10
42.97939167592299
 20
-53.75939347816911
 30
0.0
  0
VERTEX
  5
163
330
160
100
AcDbEntity
  8
DRYERJACK 486AL
 62
     7
100
AcDbVertex
100
AcDb2dVertex
 10
42.47992750572047
 20
-53.84881202832075
 30
0.0
  0
SEQEND
  5
164
330
160
100
AcDbEntity
  8
DRYERJACK 486AL
 62
     7
  0
POLYLINE
  5
165
330
10C
100
AcDbEntity
  8
DRYERJACK 486AL
 62
     7
100
AcDb2dPolyline
 66
     1
 10
0.0
 20
0.0
 30
0.0
  0
VERTEX
  5
166
330
165
100
AcDbEntity
  8
DRYERJACK 486AL
 62
     7
100
AcDbVertex
100
AcDb2dVertex
 10
41.55889453308306
 20
-54.30498944926266
 30
0.0
  0
VERTEX
  5
167
330
165
100
AcDbEntity
  8
DRYERJACK 486AL
 62
     7
100
AcDbVertex
100
AcDb2dVertex
 10
41.96606581360543
 20
-53.99653217048289
 30
0.0
  0
VERTEX
  5
168
330
165
100
AcDbEntity
  8
DRYERJACK 486AL
 62
     7
100
AcDbVertex
100
AcDb2dVertex
 10
42.47992750572045
 20
-53.84881202832075
 30
0.0
  0
SEQEND
  5
169
330
165
100
AcDbEntity
  8
DRYERJACK 486AL
 62
     7
  0
LINE
  5
16A
330
10C
100
AcDbEntity
  8
DRYERJACK 486AL
 62
     7
100
AcDbLine
 10
39.86869129725357
 20
-56.38558855898331
 30
0.0
 11
40.25080671324828
 21
-55.61229710534168
 31
0.0
  0
LINE
  5
16B
330
10C
100
AcDbEntity
  8
DRYERJACK 486AL
 62
     7
100
AcDbLine
 10
40.25422095213744
 20
-55.6020543886742
 30
0.0
 11
40.23323082797734
 21
-55.93648156953705
 31
0.0
  0
LINE
  5
16C
330
10C
100
AcDbEntity
  8
DRYERJACK 486AL
 62
     7
100
AcDbLine
 10
31.5004562644829
 20
-53.67591379060235
 30
0.0
 11
42.79848922968507
 21
-57.44192477900308
 31
0.0
  0
LINE
  5
16D
330
10C
100
AcDbEntity
  8
DRYERJACK 486AL
 62
     7
100
AcDbLine
 10
34.26121298981953
 20
-54.43721054333596
 30
0.0
 11
34.23015811798822
 21
-54.53037515882986
 31
0.0
  0
ARC
  5
16E
330
10C
100
AcDbEntity
  8
DRYERJACK 486AL
 62
     7
100
AcDbCircle
 10
36.37895775644711
 20
-56.10530627416303
 30
0.0
 40
3.895122246426079
100
AcDbArc
 50
4.138412667352204
 51
96.4114139719869
  0
ENDBLK
  5
170
330
10C
100
AcDbEntity
  8
0
100
AcDbBlockEnd
  0
BLOCK
  5
148
330
132
100
AcDbEntity
  8
0
100
AcDbBlockBegin
  2
PD_4178
 70
     0
 10
0.0
 20
0.0
 30
0.0
  3
PD_4178
  1

  0
POLYLINE
  5
133
330
132
100
AcDbEntity
  8
DRYERJACK 486AL
 62
     7
100
AcDb2dPolyline
 66
     1
 10
0.0
 20
0.0
 30
0.0
  0
VERTEX
  5
134
330
133
100
AcDbEntity
  8
DRYERJACK 486AL
 62
     7
100
AcDbVertex
100
AcDb2dVertex
 10
38.69072875413645
 20
-56.11478650105853
 30
0.0
  0
VERTEX
  5
135
330
133
100
AcDbEntity
  8
DRYERJACK 486AL
 62
     7
100
AcDbVertex
100
AcDb2dVertex
 10
38.01171746766141
 20
-58.15182036048365
 30
0.0
  0
VERTEX
  5
136
330
133
100
AcDbEntity
  8
DRYERJACK 486AL
 62
     7
100
AcDbVertex
100
AcDb2dVertex
 10
34.21698427545935
 20
-56.8869092964163
 30
0.0
  0
VERTEX
  5
137
330
133
100
AcDbEntity
  8
DRYERJACK 486AL
 62
     7
100
AcDbVertex
100
AcDb2dVertex
 10
34.8959955619344
 20
-54.84987543699118
 30
0.0
  0
VERTEX
  5
138
330
133
100
AcDbEntity
  8
DRYERJACK 486AL
 62
     7
100
AcDbVertex
100
AcDb2dVertex
 10
38.69072875413645
 20
-56.11478650105853
 30
0.0
  0
SEQEND
  5
139
330
133
100
AcDbEntity
  8
DRYERJACK 486AL
 62
     7
  0
POLYLINE
  5
13A
330
132
100
AcDbEntity
  8
DRYERJACK 486AL
 62
     7
100
AcDb2dPolyline
 66
     1
 10
0.0
 20
0.0
 30
0.0
  0
VERTEX
  5
13B
330
13A
100
AcDbEntity
  8
DRYERJACK 486AL
 62
     7
100
AcDbVertex
100
AcDb2dVertex
 10
39.04560658044424
 20
-55.05015302213517
 30
0.0
  0
VERTEX
  5
13C
330
13A
100
AcDbEntity
  8
DRYERJACK 486AL
 62
     7
100
AcDbVertex
100
AcDb2dVertex
 10
38.73640609811667
 20
-55.97775446911788
 30
0.0
  0
VERTEX
  5
13D
330
13A
100
AcDbEntity
  8
DRYERJACK 486AL
 62
     7
100
AcDbVertex
100
AcDb2dVertex
 10
34.94167290591461
 20
-54.71284340505052
 30
0.0
  0
VERTEX
  5
13E
330
13A
100
AcDbEntity
  8
DRYERJACK 486AL
 62
     7
100
AcDbVertex
100
AcDb2dVertex
 10
35.25087338824218
 20
-53.78524195806782
 30
0.0
  0
VERTEX
  5
13F
330
13A
100
AcDbEntity
  8
DRYERJACK 486AL
 62
     7
100
AcDbVertex
100
AcDb2dVertex
 10
39.04560658044424
 20
-55.05015302213517
 30
0.0
  0
SEQEND
  5
140
330
13A
100
AcDbEntity
  8
DRYERJACK 486AL
 62
     7
  0
LINE
  5
141
330
132
100
AcDbEntity
  8
DRYERJACK 486AL
 62
     7
100
AcDbLine
 10
35.25179492031433
 20
-53.78247736185136
 30
0.0
 11
34.21429729829134
 21
-56.89497022792035
 31
0.0
  0
LINE
  5
142
330
132
100
AcDbEntity
  8
DRYERJACK 486AL
 62
     7
100
AcDbLine
 10
39.04652811251638
 20
-55.04738842591872
 30
0.0
 11
38.00903049049339
 21
-58.1598812919877
 31
0.0
  0
LINE
  5
143
330
132
100
AcDbEntity
  8
DRYERJACK 486AL
 62
     7
100
AcDbLine
 10
35.25179492031433
 20
-53.78247736185136
 30
0.0
 11
35.92476240576505
 21
-54.0067998570016
 31
0.0
  0
LINE
  5
144
330
132
100
AcDbEntity
  8
DRYERJACK 486AL
 62
     7
100
AcDbLine
 10
35.92476240576505
 20
-54.0067998570016
 30
0.0
 11
39.04652811251638
 21
-55.04738842591872
 31
0.0
  0
LINE
  5
145
330
132
100
AcDbEntity
  8
DRYERJACK 486AL
 62
     7
100
AcDbLine
 10
34.93824130364966
 20
-54.72313821184538
 30
0.0
 11
38.73297449585171
 21
-55.98804927591274
 31
0.0
  0
LINE
  5
146
330
132
100
AcDbEntity
  8
DRYERJACK 486AL
 62
     7
100
AcDbLine
 10
34.89706008741649
 20
-54.84668186054489
 30
0.0
 11
38.69179327961854
 21
-56.11159292461224
 31
0.0
  0
LINE
  5
147
330
132
100
AcDbEntity
  8
DRYERJACK 486AL
 62
     7
100
AcDbLine
 10
34.21429729829134
 20
-56.89497022792035
 30
0.0
 11
38.00903049049339
 21
-58.1598812919877
 31
0.0
  0
ENDBLK
  5
149
330
132
100
AcDbEntity
  8
0
100
AcDbBlockEnd
  0
BLOCK
  5
1D5
330
172
100
AcDbEntity
  8
0
100
AcDbBlockBegin
  2
PD_4179
 70
     0
 10
0.0
 20
0.0
 30
0.0
  3
PD_4179
  1

  0
POLYLINE
  5
173
330
172
100
AcDbEntity
  8
DRYERJACK 486AL
 62
   253
420
 11184810
100
AcDb2dPolyline
 66
     1
 10
0.0
 20
0.0
 30
0.0
  0
VERTEX
  5
174
330
173
100
AcDbEntity
  8
DRYERJACK 486AL
 62
   253
420
 11184810
100
AcDbVertex
100
AcDb2dVertex
 10
16.17961046406687
 20
-54.6534245635233
 30
0.0
  0
VERTEX
  5
175
330
173
100
AcDbEntity
  8
DRYERJACK 486AL
 62
   253
420
 11184810
100
AcDbVertex
100
AcDb2dVertex
 10
16.56496660477286
 20
-53.60889596620217
 30
0.0
  0
VERTEX
  5
176
330
173
100
AcDbEntity
  8
DRYERJACK 486AL
 62
   253
420
 11184810
100
AcDbVertex
100
AcDb2dVertex
 10
17.19692981720597
 20
-52.70015871534777
 30
0.0
  0
VERTEX
  5
177
330
173
100
AcDbEntity
  8
DRYERJACK 486AL
 62
   253
420
 11184810
100
AcDbVertex
100
AcDb2dVertex
 10
17.8326713042509
 20
-52.11096177594573
 30
0.0
  0
VERTEX
  5
178
330
173
100
AcDbEntity
  8
DRYERJACK 486AL
 62
   253
420
 11184810
100
AcDbVertex
100
AcDb2dVertex
 10
19.11301875210679
 20
-51.39247435039472
 30
0.0
  0
VERTEX
  5
179
330
173
100
AcDbEntity
  8
DRYERJACK 486AL
 62
   253
420
 11184810
100
AcDbVertex
100
AcDb2dVertex
 10
20.44884671762233
 20
-51.05429467131149
 30
0.0
  0
VERTEX
  5
17A
330
173
100
AcDbEntity
  8
DRYERJACK 486AL
 62
   253
420
 11184810
100
AcDbVertex
100
AcDb2dVertex
 10
21.58262507075138
 20
-51.01633505130227
 30
0.0
  0
VERTEX
  5
17B
330
173
100
AcDbEntity
  8
DRYERJACK 486AL
 62
   253
420
 11184810
100
AcDbVertex
100
AcDb2dVertex
 10
22.60264252259968
 20
-51.16317645121487
 30
0.0
  0
VERTEX
  5
17C
330
173
100
AcDbEntity
  8
DRYERJACK 486AL
 62
   253
420
 11184810
100
AcDbVertex
100
AcDb2dVertex
 10
23.55909903291397
 20
-51.4654682499388
 30
0.0
  0
VERTEX
  5
17D
330
173
100
AcDbEntity
  8
DRYERJACK 486AL
 62
   253
420
 11184810
100
AcDbVertex
100
AcDb2dVertex
 10
24.48014266695792
 20
-51.93440434029853
 30
0.0
  0
VERTEX
  5
17E
330
173
100
AcDbEntity
  8
DRYERJACK 486AL
 62
   253
420
 11184810
100
AcDbVertex
100
AcDb2dVertex
 10
25.38610409428492
 20
-52.63383661344616
 30
0.0
  0
VERTEX
  5
17F
330
173
100
AcDbEntity
  8
DRYERJACK 486AL
 62
   253
420
 11184810
100
AcDbVertex
100
AcDb2dVertex
 10
25.25553142253535
 20
-52.90408876595663
 30
0.0
  0
VERTEX
  5
180
330
173
100
AcDbEntity
  8
DRYERJACK 486AL
 62
   253
420
 11184810
100
AcDbVertex
100
AcDb2dVertex
 10
25.11131041181952
 20
-53.05145626369561
 30
0.0
  0
VERTEX
  5
181
330
173
100
AcDbEntity
  8
DRYERJACK 486AL
 62
   253
420
 11184810
100
AcDbVertex
100
AcDb2dVertex
 10
24.88540112637853
 20
-53.19385571173627
 30
0.0
  0
VERTEX
  5
182
330
173
100
AcDbEntity
  8
DRYERJACK 486AL
 62
   253
420
 11184810
100
AcDbVertex
100
AcDb2dVertex
 10
24.5973570183671
 20
-53.30022783876471
 30
0.0
  0
VERTEX
  5
183
330
173
100
AcDbEntity
  8
DRYERJACK 486AL
 62
   253
420
 11184810
100
AcDbVertex
100
AcDb2dVertex
 10
24.24713471452676
 20
-53.3645440844309
 30
0.0
  0
VERTEX
  5
184
330
173
100
AcDbEntity
  8
DRYERJACK 486AL
 62
   253
420
 11184810
100
AcDbVertex
100
AcDb2dVertex
 10
23.99137604360488
 20
-53.45477938015413
 30
0.0
  0
VERTEX
  5
185
330
173
100
AcDbEntity
  8
DRYERJACK 486AL
 62
   253
420
 11184810
100
AcDbVertex
100
AcDb2dVertex
 10
23.7248340807003
 20
-53.61301864370948
 30
0.0
  0
VERTEX
  5
186
330
173
100
AcDbEntity
  8
DRYERJACK 486AL
 62
   253
420
 11184810
100
AcDbVertex
100
AcDb2dVertex
 10
23.46456391144213
 20
-53.87375902108325
 30
0.0
  0
VERTEX
  5
187
330
173
100
AcDbEntity
  8
DRYERJACK 486AL
 62
   253
420
 11184810
100
AcDbVertex
100
AcDb2dVertex
 10
21.91338059104436
 20
-56.14108004867538
 30
0.0
  0
VERTEX
  5
188
330
173
100
AcDbEntity
  8
DRYERJACK 486AL
 62
   253
420
 11184810
100
AcDbVertex
100
AcDb2dVertex
 10
16.20830039568258
 20
-54.71480999983491
 30
0.0
  0
SEQEND
  5
189
330
173
100
AcDbEntity
  8
DRYERJACK 486AL
 62
   253
420
 11184810
  0
POLYLINE
  5
18A
330
172
100
AcDbEntity
  8
DRYERJACK 486AL
 62
   253
420
 11184810
100
AcDb2dPolyline
 66
     1
 10
0.0
 20
0.0
 30
0.0
  0
VERTEX
  5
18B
330
18A
100
AcDbEntity
  8
DRYERJACK 486AL
 62
   253
420
 11184810
100
AcDbVertex
100
AcDb2dVertex
 10
21.01973646480552
 20
-54.80635789903852
 30
0.0
  0
VERTEX
  5
18C
330
18A
100
AcDbEntity
  8
DRYERJACK 486AL
 62
   253
420
 11184810
100
AcDbVertex
100
AcDb2dVertex
 10
20.78528536060373
 20
-55.74416231584566
 30
0.0
  0
VERTEX
  5
18D
330
18A
100
AcDbEntity
  8
DRYERJACK 486AL
 62
   253
420
 11184810
100
AcDbVertex
100
AcDb2dVertex
 10
16.9047153600224
 20
-54.77401981570031
 30
0.0
  0
VERTEX
  5
18E
330
18A
100
AcDbEntity
  8
DRYERJACK 486AL
 62
   253
420
 11184810
100
AcDbVertex
100
AcDb2dVertex
 10
17.13916646422419
 20
-53.83621539889317
 30
0.0
  0
VERTEX
  5
18F
330
18A
100
AcDbEntity
  8
DRYERJACK 486AL
 62
   253
420
 11184810
100
AcDbVertex
100
AcDb2dVertex
 10
21.01973646480552
 20
-54.80635789903852
 30
0.0
  0
SEQEND
  5
190
330
18A
100
AcDbEntity
  8
DRYERJACK 486AL
 62
   253
420
 11184810
  0
POLYLINE
  5
191
330
172
100
AcDbEntity
  8
DRYERJACK 486AL
 62
   253
420
 11184810
100
AcDb2dPolyline
 66
     1
 10
0.0
 20
0.0
 30
0.0
  0
VERTEX
  5
192
330
191
100
AcDbEntity
  8
DRYERJACK 486AL
 62
   253
420
 11184810
100
AcDbVertex
100
AcDb2dVertex
 10
20.74755759670918
 20
-55.89507337142383
 30
0.0
  0
VERTEX
  5
193
330
191
100
AcDbEntity
  8
DRYERJACK 486AL
 62
   253
420
 11184810
100
AcDbVertex
100
AcDb2dVertex
 10
20.23014826329833
 20
-57.96471070506721
 30
0.0
  0
VERTEX
  5
194
330
191
100
AcDbEntity
  8
DRYERJACK 486AL
 62
   253
420
 11184810
100
AcDbVertex
100
AcDb2dVertex
 10
16.349578262717
 20
-56.99456820492186
 30
0.0
  0
VERTEX
  5
195
330
191
100
AcDbEntity
  8
DRYERJACK 486AL
 62
   253
420
 11184810
100
AcDbVertex
100
AcDb2dVertex
 10
16.86698759612786
 20
-54.92493087127848
 30
0.0
  0
VERTEX
  5
196
330
191
100
AcDbEntity
  8
DRYERJACK 486AL
 62
   253
420
 11184810
100
AcDbVertex
100
AcDb2dVertex
 10
20.74755759670918
 20
-55.89507337142383
 30
0.0
  0
SEQEND
  5
197
330
191
100
AcDbEntity
  8
DRYERJACK 486AL
 62
   253
420
 11184810
  0
INSERT
  5
1B0
330
172
100
AcDbEntity
  8
DRYERJACK 486AL
100
AcDbBlockReference
  2
PD_4180
 10
0.0
 20
0.0
 30
0.0
  0
POLYLINE
  5
1B1
330
172
100
AcDbEntity
  8
DRYERJACK 486AL
 62
     7
100
AcDb2dPolyline
 66
     1
 10
0.0
 20
0.0
 30
0.0
  0
VERTEX
  5
1B2
330
1B1
100
AcDbEntity
  8
DRYERJACK 486AL
 62
     7
100
AcDbVertex
100
AcDb2dVertex
 10
16.20342846349462
 20
-54.55815256581231
 30
0.0
  0
VERTEX
  5
1B3
330
1B1
100
AcDbEntity
  8
DRYERJACK 486AL
 62
     7
100
AcDbVertex
100
AcDb2dVertex
 10
16.407146208882
 20
-53.94481189318012
 30
0.0
  0
VERTEX
  5
1B4
330
1B1
100
AcDbEntity
  8
DRYERJACK 486AL
 62
     7
100
AcDbVertex
100
AcDb2dVertex
 10
16.70208423190735
 20
-53.36607205640719
 30
0.0
  0
VERTEX
  5
1B5
330
1B1
100
AcDbEntity
  8
DRYERJACK 486AL
 62
     7
100
AcDbVertex
100
AcDb2dVertex
 10
17.08300517507143
 20
-52.83221001942355
 30
0.0
  0
VERTEX
  5
1B6
330
1B1
100
AcDbEntity
  8
DRYERJACK 486AL
 62
     7
100
AcDbVertex
100
AcDb2dVertex
 10
17.54314484046641
 20
-52.35270582930573
 30
0.0
  0
VERTEX
  5
1B7
330
1B1
100
AcDbEntity
  8
DRYERJACK 486AL
 62
     7
100
AcDbVertex
100
AcDb2dVertex
 10
18.07433230491826
 20
-51.93607427448372
 30
0.0
  0
VERTEX
  5
1B8
330
1B1
100
AcDbEntity
  8
DRYERJACK 486AL
 62
     7
100
AcDbVertex
100
AcDb2dVertex
 10
18.66713501503185
 20
-51.58971368351372
 30
0.0
  0
VERTEX
  5
1B9
330
1B1
100
AcDbEntity
  8
DRYERJACK 486AL
 62
     7
100
AcDbVertex
100
AcDb2dVertex
 10
19.31102628561575
 20
-51.31977454937031
 30
0.0
  0
VERTEX
  5
1BA
330
1B1
100
AcDbEntity
  8
DRYERJACK 486AL
 62
     7
100
AcDbVertex
100
AcDb2dVertex
 10
19.99457222713589
 20
-51.13105031216009
 30
0.0
  0
VERTEX
  5
1BB
330
1B1
100
AcDbEntity
  8
DRYERJACK 486AL
 62
     7
100
AcDbVertex
100
AcDb2dVertex
 10
20.7056347828366
 20
-51.02689223968131
 30
0.0
  0
VERTEX
  5
1BC
330
1B1
100
AcDbEntity
  8
DRYERJACK 486AL
 62
     7
100
AcDbVertex
100
AcDb2dVertex
 10
21.43158727010061
 20
-51.00914991733636
 30
0.0
  0
VERTEX
  5
1BD
330
1B1
100
AcDbEntity
  8
DRYERJACK 486AL
 62
     7
100
AcDbVertex
100
AcDb2dVertex
 10
22.15953859857527
 20
-51.07813840414691
 30
0.0
  0
VERTEX
  5
1BE
330
1B1
100
AcDbEntity
  8
DRYERJACK 486AL
 62
     7
100
AcDbVertex
100
AcDb2dVertex
 10
22.87656218351528
 20
-51.23263263809805
 30
0.0
  0
VERTEX
  5
1BF
330
1B1
100
AcDbEntity
  8
DRYERJACK 486AL
 62
     7
100
AcDbVertex
100
AcDb2dVertex
 10
23.56992548941645
 20
-51.46988919015863
 30
0.0
  0
VERTEX
  5
1C0
330
1B1
100
AcDbEntity
  8
DRYERJACK 486AL
 62
     7
100
AcDbVertex
100
AcDb2dVertex
 10
24.22731612782309
 20
-51.78569498068078
 30
0.0
  0
VERTEX
  5
1C1
330
1B1
100
AcDbEntity
  8
DRYERJACK 486AL
 62
     7
100
AcDbVertex
100
AcDb2dVertex
 10
24.83706049438044
 20
-52.17444209309848
 30
0.0
  0
VERTEX
  5
1C2
330
1B1
100
AcDbEntity
  8
DRYERJACK 486AL
 62
     7
100
AcDbVertex
100
AcDb2dVertex
 10
25.38833106268806
 20
-52.62922735642128
 30
0.0
  0
SEQEND
  5
1C3
330
1B1
100
AcDbEntity
  8
DRYERJACK 486AL
 62
     7
  0
LINE
  5
1C4
330
172
100
AcDbEntity
  8
DRYERJACK 486AL
 62
     7
100
AcDbLine
 10
25.38833106268806
 20
-52.62922735642127
 30
0.0
 11
25.24083685097619
 21
-52.93450278399627
 31
0.0
  0
LINE
  5
1C5
330
172
100
AcDbEntity
  8
DRYERJACK 486AL
 62
     7
100
AcDbLine
 10
21.95099263364116
 20
-56.07631167341172
 30
0.0
 11
23.46947368497351
 21
-53.86661430654453
 31
0.0
  0
POLYLINE
  5
1C6
330
172
100
AcDbEntity
  8
DRYERJACK 486AL
 62
     7
100
AcDb2dPolyline
 66
     1
 10
0.0
 20
0.0
 30
0.0
  0
VERTEX
  5
1C7
330
1C6
100
AcDbEntity
  8
DRYERJACK 486AL
 62
     7
100
AcDbVertex
100
AcDb2dVertex
 10
25.24083685097621
 20
-52.93450278399628
 30
0.0
  0
VERTEX
  5
1C8
330
1C6
100
AcDbEntity
  8
DRYERJACK 486AL
 62
     7
100
AcDbVertex
100
AcDb2dVertex
 10
24.84394143209574
 20
-53.21367823876253
 30
0.0
  0
VERTEX
  5
1C9
330
1C6
100
AcDbEntity
  8
DRYERJACK 486AL
 62
     7
100
AcDbVertex
100
AcDb2dVertex
 10
24.35280653057996
 20
-53.34114055845118
 30
0.0
  0
SEQEND
  5
1CA
330
1C6
100
AcDbEntity
  8
DRYERJACK 486AL
 62
     7
  0
POLYLINE
  5
1CB
330
172
100
AcDbEntity
  8
DRYERJACK 486AL
 62
     7
100
AcDb2dPolyline
 66
     1
 10
0.0
 20
0.0
 30
0.0
  0
VERTEX
  5
1CC
330
1CB
100
AcDbEntity
  8
DRYERJACK 486AL
 62
     7
100
AcDbVertex
100
AcDb2dVertex
 10
23.46947368497351
 20
-53.86661430654455
 30
0.0
  0
VERTEX
  5
1CD
330
1CB
100
AcDbEntity
  8
DRYERJACK 486AL
 62
     7
100
AcDbVertex
100
AcDb2dVertex
 10
23.85178804324782
 20
-53.52783698148907
 30
0.0
  0
VERTEX
  5
1CE
330
1CB
100
AcDbEntity
  8
DRYERJACK 486AL
 62
     7
100
AcDbVertex
100
AcDb2dVertex
 10
24.35280653057995
 20
-53.34114055845118
 30
0.0
  0
SEQEND
  5
1CF
330
1CB
100
AcDbEntity
  8
DRYERJACK 486AL
 62
     7
  0
LINE
  5
1D0
330
172
100
AcDbEntity
  8
DRYERJACK 486AL
 62
     7
100
AcDbLine
 10
21.94382363457868
 20
-56.07071765201388
 30
0.0
 11
22.26550477696372
 21
-55.27039702498378
 31
0.0
  0
LINE
  5
1D1
330
172
100
AcDbEntity
  8
DRYERJACK 486AL
 62
     7
100
AcDbLine
 10
22.26812337865527
 20
-55.25992261821759
 30
0.0
 11
22.27284447511426
 21
-55.59497460800478
 31
0.0
  0
LINE
  5
1D2
330
172
100
AcDbEntity
  8
DRYERJACK 486AL
 62
     7
100
AcDbLine
 10
13.39241479157209
 20
-54.01083859880727
 30
0.0
 11
24.94600909444343
 21
-56.89923717452515
 31
0.0
  0
LINE
  5
1D3
330
172
100
AcDbEntity
  8
DRYERJACK 486AL
 62
     7
100
AcDbLine
 10
16.20342846349462
 20
-54.55815256581231
 30
0.0
 11
16.17961046406687
 21
-54.6534245635233
 31
0.0
  0
ARC
  5
1D4
330
172
100
AcDbEntity
  8
DRYERJACK 486AL
 62
     7
100
AcDbCircle
 10
18.44287248456716
 20
-56.05891128734767
 30
0.0
 40
3.895122246426079
100
AcDbArc
 50
8.537118022347576
 51
100.8101193269823
  0
ENDBLK
  5
1D6
330
172
100
AcDbEntity
  8
0
100
AcDbBlockEnd
  0
BLOCK
  5
1AE
330
198
100
AcDbEntity
  8
0
100
AcDbBlockBegin
  2
PD_4180
 70
     0
 10
0.0
 20
0.0
 30
0.0
  3
PD_4180
  1

  0
POLYLINE
  5
199
330
198
100
AcDbEntity
  8
DRYERJACK 486AL
 62
     7
100
AcDb2dPolyline
 66
     1
 10
0.0
 20
0.0
 30
0.0
  0
VERTEX
  5
19A
330
199
100
AcDbEntity
  8
DRYERJACK 486AL
 62
     7
100
AcDbVertex
100
AcDb2dVertex
 10
20.7485612274773
 20
-55.89105884835136
 30
0.0
  0
VERTEX
  5
19B
330
199
100
AcDbEntity
  8
DRYERJACK 486AL
 62
     7
100
AcDbVertex
100
AcDb2dVertex
 10
20.22778334371872
 20
-57.97417038338564
 30
0.0
  0
VERTEX
  5
19C
330
199
100
AcDbEntity
  8
DRYERJACK 486AL
 62
     7
100
AcDbVertex
100
AcDb2dVertex
 10
16.3472133431374
 20
-57.00402788324028
 30
0.0
  0
VERTEX
  5
19D
330
199
100
AcDbEntity
  8
DRYERJACK 486AL
 62
     7
100
AcDbVertex
100
AcDb2dVertex
 10
16.86799122689597
 20
-54.92091634820601
 30
0.0
  0
VERTEX
  5
19E
330
199
100
AcDbEntity
  8
DRYERJACK 486AL
 62
     7
100
AcDbVertex
100
AcDb2dVertex
 10
20.7485612274773
 20
-55.89105884835136
 30
0.0
  0
SEQEND
  5
19F
330
199
100
AcDbEntity
  8
DRYERJACK 486AL
 62
     7
  0
POLYLINE
  5
1A0
330
198
100
AcDbEntity
  8
DRYERJACK 486AL
 62
     7
100
AcDb2dPolyline
 66
     1
 10
0.0
 20
0.0
 30
0.0
  0
VERTEX
  5
1A1
330
1A0
100
AcDbEntity
  8
DRYERJACK 486AL
 62
     7
100
AcDbVertex
100
AcDb2dVertex
 10
21.02074009557364
 20
-54.80234337596605
 30
0.0
  0
VERTEX
  5
1A2
330
1A0
100
AcDbEntity
  8
DRYERJACK 486AL
 62
     7
100
AcDbVertex
100
AcDb2dVertex
 10
20.78359415109367
 20
-55.7509271538859
 30
0.0
  0
VERTEX
  5
1A3
330
1A0
100
AcDbEntity
  8
DRYERJACK 486AL
 62
     7
100
AcDbVertex
100
AcDb2dVertex
 10
16.90302415051234
 20
-54.78078465374055
 30
0.0
  0
VERTEX
  5
1A4
330
1A0
100
AcDbEntity
  8
DRYERJACK 486AL
 62
     7
100
AcDbVertex
100
AcDb2dVertex
 10
17.14017009499231
 20
-53.8322008758207
 30
0.0
  0
VERTEX
  5
1A5
330
1A0
100
AcDbEntity
  8
DRYERJACK 486AL
 62
     7
100
AcDbVertex
100
AcDb2dVertex
 10
21.02074009557364
 20
-54.80234337596605
 30
0.0
  0
SEQEND
  5
1A6
330
1A0
100
AcDbEntity
  8
DRYERJACK 486AL
 62
     7
  0
LINE
  5
1A7
330
198
100
AcDbEntity
  8
DRYERJACK 486AL
 62
     7
100
AcDbLine
 10
17.14087687782775
 20
-53.82937374447893
 30
0.0
 11
16.3451525257237
 21
-57.01227115289508
 31
0.0
  0
LINE
  5
1A8
330
198
100
AcDbEntity
  8
DRYERJACK 486AL
 62
     7
100
AcDbLine
 10
21.02144687840907
 20
-54.79951624462429
 30
0.0
 11
20.22572252630502
 21
-57.98241365304043
 31
0.0
  0
LINE
  5
1A9
330
198
100
AcDbEntity
  8
DRYERJACK 486AL
 62
     7
100
AcDbLine
 10
17.14087687782775
 20
-53.82937374447893
 30
0.0
 11
17.82906687779221
 21
-54.00142124447005
 31
0.0
  0
LINE
  5
1AA
330
198
100
AcDbEntity
  8
DRYERJACK 486AL
 62
     7
100
AcDbLine
 10
17.82906687779221
 20
-54.00142124447005
 30
0.0
 11
21.02144687840907
 21
-54.79951624462429
 31
0.0
  0
LINE
  5
1AB
330
198
100
AcDbEntity
  8
DRYERJACK 486AL
 62
     7
100
AcDbLine
 10
16.90039223171947
 20
-54.79131232891203
 30
0.0
 11
20.78096223230079
 21
-55.76145482905739
 31
0.0
  0
LINE
  5
1AC
330
198
100
AcDbEntity
  8
DRYERJACK 486AL
 62
     7
100
AcDbLine
 10
16.86880768067048
 20
-54.917650533108
 30
0.0
 11
20.7493776812518
 21
-55.88779303325335
 31
0.0
  0
LINE
  5
1AD
330
198
100
AcDbEntity
  8
DRYERJACK 486AL
 62
     7
100
AcDbLine
 10
16.3451525257237
 20
-57.01227115289508
 30
0.0
 11
20.22572252630502
 21
-57.98241365304043
 31
0.0
  0
ENDBLK
  5
1AF
330
198
100
AcDbEntity
  8
0
100
AcDbBlockEnd
  0
BLOCK
  5
239
330
1D8
100
AcDbEntity
  8
0
100
AcDbBlockBegin
  2
PD_4181
 70
     0
 10
0.0
 20
0.0
 30
0.0
  3
PD_4181
  1

  0
POLYLINE
  5
1D9
330
1D8
100
AcDbEntity
  8
DRYERJACK 486AL
 62
   253
420
 11184810
100
AcDb2dPolyline
 66
     1
 10
0.0
 20
0.0
 30
0.0
  0
VERTEX
  5
1DA
330
1D9
100
AcDbEntity
  8
DRYERJACK 486AL
 62
   253
420
 11184810
100
AcDbVertex
100
AcDb2dVertex
 10
18.48827654208774
 20
-38.30926992876498
 30
0.0
  0
VERTEX
  5
1DB
330
1D9
100
AcDbEntity
  8
DRYERJACK 486AL
 62
   253
420
 11184810
100
AcDbVertex
100
AcDb2dVertex
 10
18.77729364761723
 20
-37.52587348077413
 30
0.0
  0
VERTEX
  5
1DC
330
1D9
100
AcDbEntity
  8
DRYERJACK 486AL
 62
   253
420
 11184810
100
AcDbVertex
100
AcDb2dVertex
 10
19.25126605694206
 20
-36.84432054263334
 30
0.0
  0
VERTEX
  5
1DD
330
1D9
100
AcDbEntity
  8
DRYERJACK 486AL
 62
   253
420
 11184810
100
AcDbVertex
100
AcDb2dVertex
 10
19.72807217222577
 20
-36.4024228380818
 30
0.0
  0
VERTEX
  5
1DE
330
1D9
100
AcDbEntity
  8
DRYERJACK 486AL
 62
   253
420
 11184810
100
AcDbVertex
100
AcDb2dVertex
 10
20.68833275811768
 20
-35.86355726891854
 30
0.0
  0
VERTEX
  5
1DF
330
1D9
100
AcDbEntity
  8
DRYERJACK 486AL
 62
   253
420
 11184810
100
AcDbVertex
100
AcDb2dVertex
 10
21.69020373225434
 20
-35.60992250960612
 30
0.0
  0
VERTEX
  5
1E0
330
1D9
100
AcDbEntity
  8
DRYERJACK 486AL
 62
   253
420
 11184810
100
AcDbVertex
100
AcDb2dVertex
 10
22.54053749710112
 20
-35.5814527945992
 30
0.0
  0
VERTEX
  5
1E1
330
1D9
100
AcDbEntity
  8
DRYERJACK 486AL
 62
   253
420
 11184810
100
AcDbVertex
100
AcDb2dVertex
 10
23.30555058598735
 20
-35.69158384453365
 30
0.0
  0
VERTEX
  5
1E2
330
1D9
100
AcDbEntity
  8
DRYERJACK 486AL
 62
   253
420
 11184810
100
AcDbVertex
100
AcDb2dVertex
 10
24.02289296872306
 20
-35.91830269357661
 30
0.0
  0
VERTEX
  5
1E3
330
1D9
100
AcDbEntity
  8
DRYERJACK 486AL
 62
   253
420
 11184810
100
AcDbVertex
100
AcDb2dVertex
 10
24.71367569425602
 20
-36.27000476134641
 30
0.0
  0
VERTEX
  5
1E4
330
1D9
100
AcDbEntity
  8
DRYERJACK 486AL
 62
   253
420
 11184810
100
AcDbVertex
100
AcDb2dVertex
 10
25.39314676475128
 20
-36.79457896620713
 30
0.0
  0
VERTEX
  5
1E5
330
1D9
100
AcDbEntity
  8
DRYERJACK 486AL
 62
   253
420
 11184810
100
AcDbVertex
100
AcDb2dVertex
 10
25.2952172609391
 20
-36.99726808058997
 30
0.0
  0
VERTEX
  5
1E6
330
1D9
100
AcDbEntity
  8
DRYERJACK 486AL
 62
   253
420
 11184810
100
AcDbVertex
100
AcDb2dVertex
 10
25.18705150290223
 20
-37.1077937038942
 30
0.0
  0
VERTEX
  5
1E7
330
1D9
100
AcDbEntity
  8
DRYERJACK 486AL
 62
   253
420
 11184810
100
AcDbVertex
100
AcDb2dVertex
 10
25.01761953882149
 20
-37.2145932899247
 30
0.0
  0
VERTEX
  5
1E8
330
1D9
100
AcDbEntity
  8
DRYERJACK 486AL
 62
   253
420
 11184810
100
AcDbVertex
100
AcDb2dVertex
 10
24.80158645781291
 20
-37.29437238519604
 30
0.0
  0
VERTEX
  5
1E9
330
1D9
100
AcDbEntity
  8
DRYERJACK 486AL
 62
   253
420
 11184810
100
AcDbVertex
100
AcDb2dVertex
 10
24.53891972993265
 20
-37.34260956944567
 30
0.0
  0
VERTEX
  5
1EA
330
1D9
100
AcDbEntity
  8
DRYERJACK 486AL
 62
   253
420
 11184810
100
AcDbVertex
100
AcDb2dVertex
 10
24.34710072674125
 20
-37.41028604123809
 30
0.0
  0
VERTEX
  5
1EB
330
1D9
100
AcDbEntity
  8
DRYERJACK 486AL
 62
   253
420
 11184810
100
AcDbVertex
100
AcDb2dVertex
 10
24.14719425456282
 20
-37.52896548890462
 30
0.0
  0
VERTEX
  5
1EC
330
1D9
100
AcDbEntity
  8
DRYERJACK 486AL
 62
   253
420
 11184810
100
AcDbVertex
100
AcDb2dVertex
 10
23.95199162761918
 20
-37.72452077193493
 30
0.0
  0
VERTEX
  5
1ED
330
1D9
100
AcDbEntity
  8
DRYERJACK 486AL
 62
   253
420
 11184810
100
AcDbVertex
100
AcDb2dVertex
 10
22.78860413732085
 20
-39.42501154262904
 30
0.0
  0
VERTEX
  5
1EE
330
1D9
100
AcDbEntity
  8
DRYERJACK 486AL
 62
   253
420
 11184810
100
AcDbVertex
100
AcDb2dVertex
 10
18.50979399079953
 20
-38.35530900599869
 30
0.0
  0
SEQEND
  5
1EF
330
1D9
100
AcDbEntity
  8
DRYERJACK 486AL
 62
   253
420
 11184810
  0
POLYLINE
  5
1F0
330
1D8
100
AcDbEntity
  8
DRYERJACK 486AL
 62
   253
420
 11184810
100
AcDb2dPolyline
 66
     1
 10
0.0
 20
0.0
 30
0.0
  0
VERTEX
  5
1F1
330
1F0
100
AcDbEntity
  8
DRYERJACK 486AL
 62
   253
420
 11184810
100
AcDbVertex
100
AcDb2dVertex
 10
22.11837104264173
 20
-38.42396993040138
 30
0.0
  0
VERTEX
  5
1F2
330
1F0
100
AcDbEntity
  8
DRYERJACK 486AL
 62
   253
420
 11184810
100
AcDbVertex
100
AcDb2dVertex
 10
21.94253271449038
 20
-39.12732324300674
 30
0.0
  0
VERTEX
  5
1F3
330
1F0
100
AcDbEntity
  8
DRYERJACK 486AL
 62
   253
420
 11184810
100
AcDbVertex
100
AcDb2dVertex
 10
19.03210521405439
 20
-38.39971636789773
 30
0.0
  0
VERTEX
  5
1F4
330
1F0
100
AcDbEntity
  8
DRYERJACK 486AL
 62
   253
420
 11184810
100
AcDbVertex
100
AcDb2dVertex
 10
19.20794354220573
 20
-37.69636305529237
 30
0.0
  0
VERTEX
  5
1F5
330
1F0
100
AcDbEntity
  8
DRYERJACK 486AL
 62
   253
420
 11184810
100
AcDbVertex
100
AcDb2dVertex
 10
22.11837104264173
 20
-38.42396993040138
 30
0.0
  0
SEQEND
  5
1F6
330
1F0
100
AcDbEntity
  8
DRYERJACK 486AL
 62
   253
420
 11184810
  0
POLYLINE
  5
1F7
330
1D8
100
AcDbEntity
  8
DRYERJACK 486AL
 62
   253
420
 11184810
100
AcDb2dPolyline
 66
     1
 10
0.0
 20
0.0
 30
0.0
  0
VERTEX
  5
1F8
330
1F7
100
AcDbEntity
  8
DRYERJACK 486AL
 62
   253
420
 11184810
100
AcDbVertex
100
AcDb2dVertex
 10
21.91423689156948
 20
-39.24050653469038
 30
0.0
  0
VERTEX
  5
1F9
330
1F7
100
AcDbEntity
  8
DRYERJACK 486AL
 62
   253
420
 11184810
100
AcDbVertex
100
AcDb2dVertex
 10
21.52617989151133
 20
-40.79273453492291
 30
0.0
  0
VERTEX
  5
1FA
330
1F7
100
AcDbEntity
  8
DRYERJACK 486AL
 62
   253
420
 11184810
100
AcDbVertex
100
AcDb2dVertex
 10
18.61575239107534
 20
-40.0651276598139
 30
0.0
  0
VERTEX
  5
1FB
330
1F7
100
AcDbEntity
  8
DRYERJACK 486AL
 62
   253
420
 11184810
100
AcDbVertex
100
AcDb2dVertex
 10
19.00380939113348
 20
-38.51289965958136
 30
0.0
  0
VERTEX
  5
1FC
330
1F7
100
AcDbEntity
  8
DRYERJACK 486AL
 62
   253
420
 11184810
100
AcDbVertex
100
AcDb2dVertex
 10
21.91423689156948
 20
-39.24050653469038
 30
0.0
  0
SEQEND
  5
1FD
330
1F7
100
AcDbEntity
  8
DRYERJACK 486AL
 62
   253
420
 11184810
  0
INSERT
  5
216
330
1D8
100
AcDbEntity
  8
DRYERJACK 486AL
100
AcDbBlockReference
  2
PD_4182
 10
0.0
 20
0.0
 30
0.0
  0
POLYLINE
  5
217
330
1D8
100
AcDbEntity
  8
DRYERJACK 486AL
 62
     7
100
AcDb2dPolyline
 66
     1
 10
0.0
 20
0.0
 30
0.0
  0
VERTEX
  5
218
330
217
100
AcDbEntity
  8
DRYERJACK 486AL
 62
     7
100
AcDbVertex
100
AcDb2dVertex
 10
18.50614004165855
 20
-38.23781593048173
 30
0.0
  0
VERTEX
  5
219
330
217
100
AcDbEntity
  8
DRYERJACK 486AL
 62
     7
100
AcDbVertex
100
AcDb2dVertex
 10
18.68641890387684
 20
-37.71402835460661
 30
0.0
  0
VERTEX
  5
21A
330
217
100
AcDbEntity
  8
DRYERJACK 486AL
 62
     7
100
AcDbVertex
100
AcDb2dVertex
 10
18.95537855003908
 20
-37.22559875140603
 30
0.0
  0
VERTEX
  5
21B
330
217
100
AcDbEntity
  8
DRYERJACK 486AL
 62
     7
100
AcDbVertex
100
AcDb2dVertex
 10
19.30678370847828
 20
-36.78385034839613
 30
0.0
  0
VERTEX
  5
21C
330
217
100
AcDbEntity
  8
DRYERJACK 486AL
 62
     7
100
AcDbVertex
100
AcDb2dVertex
 10
19.73248777928877
 20
-36.39902416626731
 30
0.0
  0
VERTEX
  5
21D
330
217
100
AcDbEntity
  8
DRYERJACK 486AL
 62
     7
100
AcDbVertex
100
AcDb2dVertex
 10
20.22262169635181
 20
-36.08004160205583
 30
0.0
  0
VERTEX
  5
21E
330
217
100
AcDbEntity
  8
DRYERJACK 486AL
 62
     7
100
AcDbVertex
100
AcDb2dVertex
 10
20.7658227211685
 20
-35.83429760505344
 30
0.0
  0
VERTEX
  5
21F
330
217
100
AcDbEntity
  8
DRYERJACK 486AL
 62
     7
100
AcDbVertex
100
AcDb2dVertex
 10
21.34949786438949
 20
-35.66748924024257
 30
0.0
  0
VERTEX
  5
220
330
217
100
AcDbEntity
  8
DRYERJACK 486AL
 62
     7
100
AcDbVertex
100
AcDb2dVertex
 10
21.96011582815958
 20
-35.58348361365854
 30
0.0
  0
VERTEX
  5
221
330
217
100
AcDbEntity
  8
DRYERJACK 486AL
 62
     7
100
AcDbVertex
100
AcDb2dVertex
 10
22.58352070119918
 20
-35.58422822155507
 30
0.0
  0
VERTEX
  5
222
330
217
100
AcDbEntity
  8
DRYERJACK 486AL
 62
     7
100
AcDbVertex
100
AcDb2dVertex
 10
23.20526013425296
 20
-35.66970580174215
 30
0.0
  0
VERTEX
  5
223
330
217
100
AcDbEntity
  8
DRYERJACK 486AL
 62
     7
100
AcDbVertex
100
AcDb2dVertex
 10
23.81092038783808
 20
-35.83793473377406
 30
0.0
  0
VERTEX
  5
224
330
217
100
AcDbEntity
  8
DRYERJACK 486AL
 62
     7
100
AcDbVertex
100
AcDb2dVertex
 10
24.38646048490506
 20
-36.08501497871027
 30
0.0
  0
VERTEX
  5
225
330
217
100
AcDbEntity
  8
DRYERJACK 486AL
 62
     7
100
AcDbVertex
100
AcDb2dVertex
 10
24.91853772177446
 20
-36.40521849343089
 30
0.0
  0
VERTEX
  5
226
330
217
100
AcDbEntity
  8
DRYERJACK 486AL
 62
     7
100
AcDbVertex
100
AcDb2dVertex
 10
25.39481699105363
 20
-36.79112202343846
 30
0.0
  0
SEQEND
  5
227
330
217
100
AcDbEntity
  8
DRYERJACK 486AL
 62
     7
  0
LINE
  5
228
330
1D8
100
AcDbEntity
  8
DRYERJACK 486AL
 62
     7
100
AcDbLine
 10
25.39481699105363
 20
-36.79112202343847
 30
0.0
 11
25.28419633226973
 21
-37.02007859411971
 31
0.0
  0
LINE
  5
229
330
1D8
100
AcDbEntity
  8
DRYERJACK 486AL
 62
     7
100
AcDbLine
 10
22.81681316926845
 20
-39.3764352611813
 30
0.0
 11
23.95567395776771
 21
-37.71916223603091
 31
0.0
  0
POLYLINE
  5
22A
330
1D8
100
AcDbEntity
  8
DRYERJACK 486AL
 62
     7
100
AcDb2dPolyline
 66
     1
 10
0.0
 20
0.0
 30
0.0
  0
VERTEX
  5
22B
330
22A
100
AcDbEntity
  8
DRYERJACK 486AL
 62
     7
100
AcDbVertex
100
AcDb2dVertex
 10
25.28419633226974
 20
-37.02007859411972
 30
0.0
  0
VERTEX
  5
22C
330
22A
100
AcDbEntity
  8
DRYERJACK 486AL
 62
     7
100
AcDbVertex
100
AcDb2dVertex
 10
24.98652476810938
 20
-37.2294601851944
 30
0.0
  0
VERTEX
  5
22D
330
22A
100
AcDbEntity
  8
DRYERJACK 486AL
 62
     7
100
AcDbVertex
100
AcDb2dVertex
 10
24.61817359197256
 20
-37.32505692496088
 30
0.0
  0
SEQEND
  5
22E
330
22A
100
AcDbEntity
  8
DRYERJACK 486AL
 62
     7
  0
POLYLINE
  5
22F
330
1D8
100
AcDbEntity
  8
DRYERJACK 486AL
 62
     7
100
AcDb2dPolyline
 66
     1
 10
0.0
 20
0.0
 30
0.0
  0
VERTEX
  5
230
330
22F
100
AcDbEntity
  8
DRYERJACK 486AL
 62
     7
100
AcDbVertex
100
AcDb2dVertex
 10
23.95567395776771
 20
-37.71916223603091
 30
0.0
  0
VERTEX
  5
231
330
22F
100
AcDbEntity
  8
DRYERJACK 486AL
 62
     7
100
AcDbVertex
100
AcDb2dVertex
 10
24.24240972647345
 20
-37.46507924223931
 30
0.0
  0
VERTEX
  5
232
330
22F
100
AcDbEntity
  8
DRYERJACK 486AL
 62
     7
100
AcDbVertex
100
AcDb2dVertex
 10
24.61817359197255
 20
-37.32505692496089
 30
0.0
  0
SEQEND
  5
233
330
22F
100
AcDbEntity
  8
DRYERJACK 486AL
 62
     7
  0
LINE
  5
234
330
1D8
100
AcDbEntity
  8
DRYERJACK 486AL
 62
     7
100
AcDbLine
 10
22.8114364199716
 20
-39.37223974513292
 30
0.0
 11
23.05269727676038
 21
-38.77199927486035
 31
0.0
  0
LINE
  5
235
330
1D8
100
AcDbEntity
  8
DRYERJACK 486AL
 62
     7
100
AcDbLine
 10
23.05466122802904
 20
-38.7641434697857
 30
0.0
 11
23.05820205037329
 21
-39.01543246212609
 31
0.0
  0
LINE
  5
236
330
1D8
100
AcDbEntity
  8
DRYERJACK 486AL
 62
     7
100
AcDbLine
 10
16.39787978771665
 20
-37.82733045522796
 30
0.0
 11
25.06307551487016
 21
-39.99362938701637
 31
0.0
  0
LINE
  5
237
330
1D8
100
AcDbEntity
  8
DRYERJACK 486AL
 62
     7
100
AcDbLine
 10
18.50614004165855
 20
-38.23781593048173
 30
0.0
 11
18.48827654208774
 21
-38.30926992876498
 31
0.0
  0
ARC
  5
238
330
1D8
100
AcDbEntity
  8
DRYERJACK 486AL
 62
     7
100
AcDbCircle
 10
20.18572305746296
 20
-39.36338497163325
 30
0.0
 40
2.921341684819557
100
AcDbArc
 50
8.537118022347576
 51
100.8101193269823
  0
ENDBLK
  5
23A
330
1D8
100
AcDbEntity
  8
0
100
AcDbBlockEnd
  0
BLOCK
  5
214
330
1FE
100
AcDbEntity
  8
0
100
AcDbBlockBegin
  2
PD_4182
 70
     0
 10
0.0
 20
0.0
 30
0.0
  3
PD_4182
  1

  0
POLYLINE
  5
1FF
330
1FE
100
AcDbEntity
  8
DRYERJACK 486AL
 62
     7
100
AcDb2dPolyline
 66
     1
 10
0.0
 20
0.0
 30
0.0
  0
VERTEX
  5
200
330
1FF
100
AcDbEntity
  8
DRYERJACK 486AL
 62
     7
100
AcDbVertex
100
AcDb2dVertex
 10
21.91498961464556
 20
-39.23749564238602
 30
0.0
  0
VERTEX
  5
201
330
1FF
100
AcDbEntity
  8
DRYERJACK 486AL
 62
     7
100
AcDbVertex
100
AcDb2dVertex
 10
21.52440620182663
 20
-40.79982929366173
 30
0.0
  0
VERTEX
  5
202
330
1FF
100
AcDbEntity
  8
DRYERJACK 486AL
 62
     7
100
AcDbVertex
100
AcDb2dVertex
 10
18.61397870139064
 20
-40.07222241855272
 30
0.0
  0
VERTEX
  5
203
330
1FF
100
AcDbEntity
  8
DRYERJACK 486AL
 62
     7
100
AcDbVertex
100
AcDb2dVertex
 10
19.00456211420957
 20
-38.50988876727701
 30
0.0
  0
VERTEX
  5
204
330
1FF
100
AcDbEntity
  8
DRYERJACK 486AL
 62
     7
100
AcDbVertex
100
AcDb2dVertex
 10
21.91498961464556
 20
-39.23749564238602
 30
0.0
  0
SEQEND
  5
205
330
1FF
100
AcDbEntity
  8
DRYERJACK 486AL
 62
     7
  0
POLYLINE
  5
206
330
1FE
100
AcDbEntity
  8
DRYERJACK 486AL
 62
     7
100
AcDb2dPolyline
 66
     1
 10
0.0
 20
0.0
 30
0.0
  0
VERTEX
  5
207
330
206
100
AcDbEntity
  8
DRYERJACK 486AL
 62
     7
100
AcDbVertex
100
AcDb2dVertex
 10
22.11912376571781
 20
-38.42095903809703
 30
0.0
  0
VERTEX
  5
208
330
206
100
AcDbEntity
  8
DRYERJACK 486AL
 62
     7
100
AcDbVertex
100
AcDb2dVertex
 10
21.94126430735783
 20
-39.13239687153694
 30
0.0
  0
VERTEX
  5
209
330
206
100
AcDbEntity
  8
DRYERJACK 486AL
 62
     7
100
AcDbVertex
100
AcDb2dVertex
 10
19.03083680692184
 20
-38.40478999642793
 30
0.0
  0
VERTEX
  5
20A
330
206
100
AcDbEntity
  8
DRYERJACK 486AL
 62
     7
100
AcDbVertex
100
AcDb2dVertex
 10
19.20869626528182
 20
-37.69335216298802
 30
0.0
  0
VERTEX
  5
20B
330
206
100
AcDbEntity
  8
DRYERJACK 486AL
 62
     7
100
AcDbVertex
100
AcDb2dVertex
 10
22.11912376571781
 20
-38.42095903809703
 30
0.0
  0
SEQEND
  5
20C
330
206
100
AcDbEntity
  8
DRYERJACK 486AL
 62
     7
  0
LINE
  5
20D
330
1FE
100
AcDbEntity
  8
DRYERJACK 486AL
 62
     7
100
AcDbLine
 10
19.2092263524084
 20
-37.6912318144817
 30
0.0
 11
18.61243308833036
 21
-40.07840487079383
 31
0.0
  0
LINE
  5
20E
330
1FE
100
AcDbEntity
  8
DRYERJACK 486AL
 62
     7
100
AcDbLine
 10
22.11965385284439
 20
-38.41883868959071
 30
0.0
 11
21.52286058876635
 21
-40.80601174590284
 31
0.0
  0
LINE
  5
20F
330
1FE
100
AcDbEntity
  8
DRYERJACK 486AL
 62
     7
100
AcDbLine
 10
19.2092263524084
 20
-37.6912318144817
 30
0.0
 11
19.72536885238175
 21
-37.82026743947505
 31
0.0
  0
LINE
  5
210
330
1FE
100
AcDbEntity
  8
DRYERJACK 486AL
 62
     7
100
AcDbLine
 10
19.72536885238175
 20
-37.82026743947505
 30
0.0
 11
22.11965385284439
 21
-38.41883868959071
 31
0.0
  0
LINE
  5
211
330
1FE
100
AcDbEntity
  8
DRYERJACK 486AL
 62
     7
100
AcDbLine
 10
19.02886286782719
 20
-38.41268575280654
 30
0.0
 11
21.93929036826318
 21
-39.14029262791554
 31
0.0
  0
LINE
  5
212
330
1FE
100
AcDbEntity
  8
DRYERJACK 486AL
 62
     7
100
AcDbLine
 10
19.00517445454044
 20
-38.50743940595351
 30
0.0
 11
21.91560195497644
 21
-39.23504628106252
 31
0.0
  0
LINE
  5
213
330
1FE
100
AcDbEntity
  8
DRYERJACK 486AL
 62
     7
100
AcDbLine
 10
18.61243308833036
 20
-40.07840487079383
 30
0.0
 11
21.52286058876635
 21
-40.80601174590284
 31
0.0
  0
ENDBLK
  5
215
330
1FE
100
AcDbEntity
  8
0
100
AcDbBlockEnd
  0
BLOCK
  5
29D
330
23C
100
AcDbEntity
  8
0
100
AcDbBlockBegin
  2
PD_4183
 70
     0
 10
0.0
 20
0.0
 30
0.0
  3
PD_4183
  1

  0
POLYLINE
  5
23D
330
23C
100
AcDbEntity
  8
DRYERJACK 486AL
 62
   253
420
 11184810
100
AcDb2dPolyline
 66
     1
 10
0.0
 20
0.0
 30
0.0
  0
VERTEX
  5
23E
330
23D
100
AcDbEntity
  8
DRYERJACK 486AL
 62
   253
420
 11184810
100
AcDbVertex
100
AcDb2dVertex
 10
35.73989421527925
 20
-38.22655629540746
 30
0.0
  0
VERTEX
  5
23F
330
23D
100
AcDbEntity
  8
DRYERJACK 486AL
 62
   253
420
 11184810
100
AcDbVertex
100
AcDb2dVertex
 10
36.08814378153374
 20
-37.46763395312409
 30
0.0
  0
VERTEX
  5
240
330
23D
100
AcDbEntity
  8
DRYERJACK 486AL
 62
   253
420
 11184810
100
AcDbVertex
100
AcDb2dVertex
 10
36.61299282241507
 20
-36.82444056340721
 30
0.0
  0
VERTEX
  5
241
330
23D
100
AcDbEntity
  8
DRYERJACK 486AL
 62
   253
420
 11184810
100
AcDbVertex
100
AcDb2dVertex
 10
37.12228650517757
 20
-36.42041383464034
 30
0.0
  0
VERTEX
  5
242
330
23D
100
AcDbEntity
  8
DRYERJACK 486AL
 62
   253
420
 11184810
100
AcDbVertex
100
AcDb2dVertex
 10
38.12104773211583
 20
-35.95678412677866
 30
0.0
  0
VERTEX
  5
243
330
23D
100
AcDbEntity
  8
DRYERJACK 486AL
 62
   253
420
 11184810
100
AcDbVertex
100
AcDb2dVertex
 10
39.13942057880737
 20
-35.78073644837762
 30
0.0
  0
VERTEX
  5
244
330
23D
100
AcDbEntity
  8
DRYERJACK 486AL
 62
   253
420
 11184810
100
AcDbVertex
100
AcDb2dVertex
 10
39.98943320068657
 20
-35.81756821397624
 30
0.0
  0
VERTEX
  5
245
330
23D
100
AcDbEntity
  8
DRYERJACK 486AL
 62
   253
420
 11184810
100
AcDbVertex
100
AcDb2dVertex
 10
40.74374626647953
 20
-35.98604869682495
 30
0.0
  0
VERTEX
  5
246
330
23D
100
AcDbEntity
  8
DRYERJACK 486AL
 62
   253
420
 11184810
100
AcDbVertex
100
AcDb2dVertex
 10
41.44158716487379
 20
-36.26711739146845
 30
0.0
  0
VERTEX
  5
247
330
23D
100
AcDbEntity
  8
DRYERJACK 486AL
 62
   253
420
 11184810
100
AcDbVertex
100
AcDb2dVertex
 10
42.10336086262498
 20
-36.67076413223694
 30
0.0
  0
VERTEX
  5
248
330
23D
100
AcDbEntity
  8
DRYERJACK 486AL
 62
   253
420
 11184810
100
AcDbVertex
100
AcDb2dVertex
 10
42.74059753631278
 20
-37.24590624837219
 30
0.0
  0
VERTEX
  5
249
330
23D
100
AcDbEntity
  8
DRYERJACK 486AL
 62
   253
420
 11184810
100
AcDbVertex
100
AcDb2dVertex
 10
42.62741093983868
 20
-37.44048748895004
 30
0.0
  0
VERTEX
  5
24A
330
23D
100
AcDbEntity
  8
DRYERJACK 486AL
 62
   253
420
 11184810
100
AcDbVertex
100
AcDb2dVertex
 10
42.51108685726586
 20
-37.54239162248774
 30
0.0
  0
VERTEX
  5
24B
330
23D
100
AcDbEntity
  8
DRYERJACK 486AL
 62
   253
420
 11184810
100
AcDbVertex
100
AcDb2dVertex
 10
42.33396280316094
 20
-37.63588179034501
 30
0.0
  0
VERTEX
  5
24C
330
23D
100
AcDbEntity
  8
DRYERJACK 486AL
 62
   253
420
 11184810
100
AcDbVertex
100
AcDb2dVertex
 10
42.11244727343311
 20
-37.69885691417791
 30
0.0
  0
VERTEX
  5
24D
330
23D
100
AcDbEntity
  8
DRYERJACK 486AL
 62
   253
420
 11184810
100
AcDbVertex
100
AcDb2dVertex
 10
41.84685461106007
 20
-37.72680639670006
 30
0.0
  0
VERTEX
  5
24E
330
23D
100
AcDbEntity
  8
DRYERJACK 486AL
 62
   253
420
 11184810
100
AcDbVertex
100
AcDb2dVertex
 10
41.65041006508028
 20
-37.77957168049927
 30
0.0
  0
VERTEX
  5
24F
330
23D
100
AcDbEntity
  8
DRYERJACK 486AL
 62
   253
420
 11184810
100
AcDbVertex
100
AcDb2dVertex
 10
41.44199012218839
 20
-37.88256942961154
 30
0.0
  0
VERTEX
  5
250
330
23D
100
AcDbEntity
  8
DRYERJACK 486AL
 62
   253
420
 11184810
100
AcDbVertex
100
AcDb2dVertex
 10
41.2323640618657
 20
-38.06257734366077
 30
0.0
  0
VERTEX
  5
251
330
23D
100
AcDbEntity
  8
DRYERJACK 486AL
 62
   253
420
 11184810
100
AcDbVertex
100
AcDb2dVertex
 10
39.94198165778929
 20
-39.66883154678319
 30
0.0
  0
VERTEX
  5
252
330
23D
100
AcDbEntity
  8
DRYERJACK 486AL
 62
   253
420
 11184810
100
AcDbVertex
100
AcDb2dVertex
 10
35.75781724799818
 20
-38.27411007685281
 30
0.0
  0
SEQEND
  5
253
330
23D
100
AcDbEntity
  8
DRYERJACK 486AL
 62
   253
420
 11184810
  0
POLYLINE
  5
254
330
23C
100
AcDbEntity
  8
DRYERJACK 486AL
 62
   253
420
 11184810
100
AcDb2dPolyline
 66
     1
 10
0.0
 20
0.0
 30
0.0
  0
VERTEX
  5
255
330
254
100
AcDbEntity
  8
DRYERJACK 486AL
 62
   253
420
 11184810
100
AcDbVertex
100
AcDb2dVertex
 10
39.35049913130365
 20
-38.6193339853393
 30
0.0
  0
VERTEX
  5
256
330
254
100
AcDbEntity
  8
DRYERJACK 486AL
 62
   253
420
 11184810
100
AcDbVertex
100
AcDb2dVertex
 10
39.12123400094144
 20
-39.30712937642592
 30
0.0
  0
VERTEX
  5
257
330
254
100
AcDbEntity
  8
DRYERJACK 486AL
 62
   253
420
 11184810
100
AcDbVertex
100
AcDb2dVertex
 10
36.2751841067899
 20
-38.3584460783754
 30
0.0
  0
VERTEX
  5
258
330
254
100
AcDbEntity
  8
DRYERJACK 486AL
 62
   253
420
 11184810
100
AcDbVertex
100
AcDb2dVertex
 10
36.5044492371521
 20
-37.67065068728878
 30
0.0
  0
VERTEX
  5
259
330
254
100
AcDbEntity
  8
DRYERJACK 486AL
 62
   253
420
 11184810
100
AcDbVertex
100
AcDb2dVertex
 10
39.35049913130365
 20
-38.6193339853393
 30
0.0
  0
SEQEND
  5
25A
330
254
100
AcDbEntity
  8
DRYERJACK 486AL
 62
   253
420
 11184810
  0
POLYLINE
  5
25B
330
23C
100
AcDbEntity
  8
DRYERJACK 486AL
 62
   253
420
 11184810
100
AcDb2dPolyline
 66
     1
 10
0.0
 20
0.0
 30
0.0
  0
VERTEX
  5
25C
330
25B
100
AcDbEntity
  8
DRYERJACK 486AL
 62
   253
420
 11184810
100
AcDbVertex
100
AcDb2dVertex
 10
39.0843407615728
 20
-39.41780909453182
 30
0.0
  0
VERTEX
  5
25D
330
25B
100
AcDbEntity
  8
DRYERJACK 486AL
 62
   253
420
 11184810
100
AcDbVertex
100
AcDb2dVertex
 10
38.57837633594586
 20
-40.93570237141265
 30
0.0
  0
VERTEX
  5
25E
330
25B
100
AcDbEntity
  8
DRYERJACK 486AL
 62
   253
420
 11184810
100
AcDbVertex
100
AcDb2dVertex
 10
35.73232644179432
 20
-39.98701907336213
 30
0.0
  0
VERTEX
  5
25F
330
25B
100
AcDbEntity
  8
DRYERJACK 486AL
 62
   253
420
 11184810
100
AcDbVertex
100
AcDb2dVertex
 10
36.23829086742127
 20
-38.4691257964813
 30
0.0
  0
VERTEX
  5
260
330
25B
100
AcDbEntity
  8
DRYERJACK 486AL
 62
   253
420
 11184810
100
AcDbVertex
100
AcDb2dVertex
 10
39.0843407615728
 20
-39.41780909453182
 30
0.0
  0
SEQEND
  5
261
330
25B
100
AcDbEntity
  8
DRYERJACK 486AL
 62
   253
420
 11184810
  0
INSERT
  5
27A
330
23C
100
AcDbEntity
  8
DRYERJACK 486AL
100
AcDbBlockReference
  2
PD_4184
 10
0.0
 20
0.0
 30
0.0
  0
POLYLINE
  5
27B
330
23C
100
AcDbEntity
  8
DRYERJACK 486AL
 62
     7
100
AcDb2dPolyline
 66
     1
 10
0.0
 20
0.0
 30
0.0
  0
VERTEX
  5
27C
330
27B
100
AcDbEntity
  8
DRYERJACK 486AL
 62
     7
100
AcDbVertex
100
AcDb2dVertex
 10
35.76318536915273
 20
-38.15668283378704
 30
0.0
  0
VERTEX
  5
27D
330
27B
100
AcDbEntity
  8
DRYERJACK 486AL
 62
     7
100
AcDbVertex
100
AcDb2dVertex
 10
35.98310589059754
 20
-37.64826483936582
 30
0.0
  0
VERTEX
  5
27E
330
27B
100
AcDbEntity
  8
DRYERJACK 486AL
 62
     7
100
AcDbVertex
100
AcDb2dVertex
 10
36.28873415273966
 20
-37.18190217584484
 30
0.0
  0
VERTEX
  5
27F
330
27B
100
AcDbEntity
  8
DRYERJACK 486AL
 62
     7
100
AcDbVertex
100
AcDb2dVertex
 10
36.67298479808864
 20
-36.76840649450298
 30
0.0
  0
VERTEX
  5
280
330
27B
100
AcDbEntity
  8
DRYERJACK 486AL
 62
     7
100
AcDbVertex
100
AcDb2dVertex
 10
37.12694977223499
 20
-36.41736383526514
 30
0.0
  0
VERTEX
  5
281
330
27B
100
AcDbEntity
  8
DRYERJACK 486AL
 62
     7
100
AcDbVertex
100
AcDb2dVertex
 10
37.64010483861944
 20
-36.13691239424468
 30
0.0
  0
VERTEX
  5
282
330
27B
100
AcDbEntity
  8
DRYERJACK 486AL
 62
     7
100
AcDbVertex
100
AcDb2dVertex
 10
38.200553561134
 20
-35.9335538565424
 30
0.0
  0
VERTEX
  5
283
330
27B
100
AcDbEntity
  8
DRYERJACK 486AL
 62
     7
100
AcDbVertex
100
AcDb2dVertex
 10
38.79530309832396
 20
-35.81200266815964
 30
0.0
  0
VERTEX
  5
284
330
27B
100
AcDbEntity
  8
DRYERJACK 486AL
 62
     7
100
AcDbVertex
100
AcDb2dVertex
 10
39.41056541547437
 20
-35.77507674134395
 30
0.0
  0
VERTEX
  5
285
330
27B
100
AcDbEntity
  8
DRYERJACK 486AL
 62
     7
100
AcDbVertex
100
AcDb2dVertex
 10
40.03207693160334
 20
-35.82363212713695
 30
0.0
  0
VERTEX
  5
286
330
27B
100
AcDbEntity
  8
DRYERJACK 486AL
 62
     7
100
AcDbVertex
100
AcDb2dVertex
 10
40.64542919100933
 20
-35.95654316960609
 30
0.0
  0
VERTEX
  5
287
330
27B
100
AcDbEntity
  8
DRYERJACK 486AL
 62
     7
100
AcDbVertex
100
AcDb2dVertex
 10
41.23640289343845
 20
-36.17072860184327
 30
0.0
  0
VERTEX
  5
288
330
27B
100
AcDbEntity
  8
DRYERJACK 486AL
 62
     7
100
AcDbVertex
100
AcDb2dVertex
 10
41.7912975390749
 20
-36.46122297874857
 30
0.0
  0
VERTEX
  5
289
330
27B
100
AcDbEntity
  8
DRYERJACK 486AL
 62
     7
100
AcDbVertex
100
AcDb2dVertex
 10
42.29724904621916
 20
-36.82129179057829
 30
0.0
  0
VERTEX
  5
28A
330
27B
100
AcDbEntity
  8
DRYERJACK 486AL
 62
     7
100
AcDbVertex
100
AcDb2dVertex
 10
42.74252797834653
 20
-37.24258758858832
 30
0.0
  0
SEQEND
  5
28B
330
27B
100
AcDbEntity
  8
DRYERJACK 486AL
 62
     7
  0
LINE
  5
28C
330
23C
100
AcDbEntity
  8
DRYERJACK 486AL
 62
     7
100
AcDbLine
 10
42.74252797834653
 20
-37.24258758858832
 30
0.0
 11
42.614672986949
 21
-37.46238554713806
 31
0.0
  0
LINE
  5
28D
330
23C
100
AcDbEntity
  8
DRYERJACK 486AL
 62
     7
100
AcDbLine
 10
39.97383323034018
 20
-39.62256188146404
 30
0.0
 11
41.23644652660038
 21
-38.05751701323207
 31
0.0
  0
POLYLINE
  5
28E
330
23C
100
AcDbEntity
  8
DRYERJACK 486AL
 62
     7
100
AcDb2dPolyline
 66
     1
 10
0.0
 20
0.0
 30
0.0
  0
VERTEX
  5
28F
330
28E
100
AcDbEntity
  8
DRYERJACK 486AL
 62
     7
100
AcDbVertex
100
AcDb2dVertex
 10
42.61467298694901
 20
-37.46238554713807
 30
0.0
  0
VERTEX
  5
290
330
28E
100
AcDbEntity
  8
DRYERJACK 486AL
 62
     7
100
AcDbVertex
100
AcDb2dVertex
 10
42.30181938373032
 20
-37.6483200349119
 30
0.0
  0
VERTEX
  5
291
330
28E
100
AcDbEntity
  8
DRYERJACK 486AL
 62
     7
100
AcDbVertex
100
AcDb2dVertex
 10
41.92722125607843
 20
-37.71538394752563
 30
0.0
  0
SEQEND
  5
292
330
28E
100
AcDbEntity
  8
DRYERJACK 486AL
 62
     7
  0
POLYLINE
  5
293
330
23C
100
AcDbEntity
  8
DRYERJACK 486AL
 62
     7
100
AcDb2dPolyline
 66
     1
 10
0.0
 20
0.0
 30
0.0
  0
VERTEX
  5
294
330
293
100
AcDbEntity
  8
DRYERJACK 486AL
 62
     7
100
AcDbVertex
100
AcDb2dVertex
 10
41.23644652660038
 20
-38.05751701323207
 30
0.0
  0
VERTEX
  5
295
330
293
100
AcDbEntity
  8
DRYERJACK 486AL
 62
     7
100
AcDbVertex
100
AcDb2dVertex
 10
41.54182498699215
 20
-37.82617405414724
 30
0.0
  0
VERTEX
  5
296
330
293
100
AcDbEntity
  8
DRYERJACK 486AL
 62
     7
100
AcDbVertex
100
AcDb2dVertex
 10
41.92722125607842
 20
-37.71538394752564
 30
0.0
  0
SEQEND
  5
297
330
293
100
AcDbEntity
  8
DRYERJACK 486AL
 62
     7
  0
LINE
  5
298
330
23C
100
AcDbEntity
  8
DRYERJACK 486AL
 62
     7
100
AcDbLine
 10
39.96879409972826
 20
-39.61796634552255
 30
0.0
 11
40.2553806617243
 21
-39.03799775529134
 31
0.0
  0
LINE
  5
299
330
23C
100
AcDbEntity
  8
DRYERJACK 486AL
 62
     7
100
AcDbLine
 10
40.25794134089116
 20
-39.03031571779073
 30
0.0
 11
40.24219874777108
 21
-39.28113610343785
 31
0.0
  0
LINE
  5
29A
330
23C
100
AcDbEntity
  8
DRYERJACK 486AL
 62
     7
100
AcDbLine
 10
33.69261782515025
 20
-37.58571026923683
 30
0.0
 11
42.16614254905188
 21
-40.41021851053739
 31
0.0
  0
LINE
  5
29B
330
23C
100
AcDbEntity
  8
DRYERJACK 486AL
 62
     7
100
AcDbLine
 10
35.76318536915272
 20
-38.15668283378704
 30
0.0
 11
35.73989421527925
 21
-38.22655629540746
 31
0.0
  0
ARC
  5
29C
330
23C
100
AcDbEntity
  8
DRYERJACK 486AL
 62
     7
100
AcDbCircle
 10
37.35149394412342
 20
-39.40775463190734
 30
0.0
 40
2.921341684819557
100
AcDbArc
 50
4.138412667352204
 51
96.4114139719869
  0
ENDBLK
  5
29E
330
23C
100
AcDbEntity
  8
0
100
AcDbBlockEnd
  0
BLOCK
  5
278
330
262
100
AcDbEntity
  8
0
100
AcDbBlockBegin
  2
PD_4184
 70
     0
 10
0.0
 20
0.0
 30
0.0
  3
PD_4184
  1

  0
POLYLINE
  5
263
330
262
100
AcDbEntity
  8
DRYERJACK 486AL
 62
     7
100
AcDb2dPolyline
 66
     1
 10
0.0
 20
0.0
 30
0.0
  0
VERTEX
  5
264
330
263
100
AcDbEntity
  8
DRYERJACK 486AL
 62
     7
100
AcDbVertex
100
AcDb2dVertex
 10
39.08532219239042
 20
-39.41486480207897
 30
0.0
  0
VERTEX
  5
265
330
263
100
AcDbEntity
  8
DRYERJACK 486AL
 62
     7
100
AcDbVertex
100
AcDb2dVertex
 10
38.57606372753414
 20
-40.94264019664782
 30
0.0
  0
VERTEX
  5
266
330
263
100
AcDbEntity
  8
DRYERJACK 486AL
 62
     7
100
AcDbVertex
100
AcDb2dVertex
 10
35.7300138333826
 20
-39.9939568985973
 30
0.0
  0
VERTEX
  5
267
330
263
100
AcDbEntity
  8
DRYERJACK 486AL
 62
     7
100
AcDbVertex
100
AcDb2dVertex
 10
36.23927229823889
 20
-38.46618150402846
 30
0.0
  0
VERTEX
  5
268
330
263
100
AcDbEntity
  8
DRYERJACK 486AL
 62
     7
100
AcDbVertex
100
AcDb2dVertex
 10
39.08532219239042
 20
-39.41486480207897
 30
0.0
  0
SEQEND
  5
269
330
263
100
AcDbEntity
  8
DRYERJACK 486AL
 62
     7
  0
POLYLINE
  5
26A
330
262
100
AcDbEntity
  8
DRYERJACK 486AL
 62
     7
100
AcDb2dPolyline
 66
     1
 10
0.0
 20
0.0
 30
0.0
  0
VERTEX
  5
26B
330
26A
100
AcDbEntity
  8
DRYERJACK 486AL
 62
     7
100
AcDbVertex
100
AcDb2dVertex
 10
39.35148056212127
 20
-38.61638969288645
 30
0.0
  0
VERTEX
  5
26C
330
26A
100
AcDbEntity
  8
DRYERJACK 486AL
 62
     7
100
AcDbVertex
100
AcDb2dVertex
 10
39.11958020037558
 20
-39.31209077812349
 30
0.0
  0
VERTEX
  5
26D
330
26A
100
AcDbEntity
  8
DRYERJACK 486AL
 62
     7
100
AcDbVertex
100
AcDb2dVertex
 10
36.27353030622405
 20
-38.36340748007297
 30
0.0
  0
VERTEX
  5
26E
330
26A
100
AcDbEntity
  8
DRYERJACK 486AL
 62
     7
100
AcDbVertex
100
AcDb2dVertex
 10
36.50543066796972
 20
-37.66770639483593
 30
0.0
  0
VERTEX
  5
26F
330
26A
100
AcDbEntity
  8
DRYERJACK 486AL
 62
     7
100
AcDbVertex
100
AcDb2dVertex
 10
39.35148056212127
 20
-38.61638969288645
 30
0.0
  0
SEQEND
  5
270
330
26A
100
AcDbEntity
  8
DRYERJACK 486AL
 62
     7
  0
LINE
  5
271
330
262
100
AcDbEntity
  8
DRYERJACK 486AL
 62
     7
100
AcDbLine
 10
36.50612181702384
 20
-37.66563294767359
 30
0.0
 11
35.72799860050659
 21
-40.00000259722534
 31
0.0
  0
LINE
  5
272
330
262
100
AcDbEntity
  8
DRYERJACK 486AL
 62
     7
100
AcDbLine
 10
39.35217171117537
 20
-38.61431624572411
 30
0.0
 11
38.57404849465813
 21
-40.94868589527586
 31
0.0
  0
LINE
  5
273
330
262
100
AcDbEntity
  8
DRYERJACK 486AL
 62
     7
100
AcDbLine
 10
36.50612181702384
 20
-37.66563294767359
 30
0.0
 11
37.01084743111187
 21
-37.83387481903627
 31
0.0
  0
LINE
  5
274
330
262
100
AcDbEntity
  8
DRYERJACK 486AL
 62
     7
100
AcDbLine
 10
37.01084743111187
 20
-37.83387481903627
 30
0.0
 11
39.35217171117537
 21
-38.61431624572411
 31
0.0
  0
LINE
  5
275
330
262
100
AcDbEntity
  8
DRYERJACK 486AL
 62
     7
100
AcDbLine
 10
36.27095660452532
 20
-38.37112858516912
 30
0.0
 11
39.11700649867687
 21
-39.31981188321964
 31
0.0
  0
LINE
  5
276
330
262
100
AcDbEntity
  8
DRYERJACK 486AL
 62
     7
100
AcDbLine
 10
36.24007069235045
 20
-38.46378632169375
 30
0.0
 11
39.08612058650199
 21
-39.41246961974426
 31
0.0
  0
LINE
  5
277
330
262
100
AcDbEntity
  8
DRYERJACK 486AL
 62
     7
100
AcDbLine
 10
35.72799860050659
 20
-40.00000259722534
 30
0.0
 11
38.57404849465813
 21
-40.94868589527586
 31
0.0
  0
ENDBLK
  5
279
330
262
100
AcDbEntity
  8
0
100
AcDbBlockEnd
  0
BLOCK
  5
301
330
2A0
100
AcDbEntity
  8
0
100
AcDbBlockBegin
  2
PD_4185
 70
     0
 10
0.0
 20
0.0
 30
0.0
  3
PD_4185
  1

  0
POLYLINE
  5
2A1
330
2A0
100
AcDbEntity
  8
DRYERJACK 486AL
 62
   253
420
 11184810
100
AcDb2dPolyline
 66
     1
 10
0.0
 20
0.0
 30
0.0
  0
VERTEX
  5
2A2
330
2A1
100
AcDbEntity
  8
DRYERJACK 486AL
 62
   253
420
 11184810
100
AcDbVertex
100
AcDb2dVertex
 10
53.73870580811204
 20
-38.1176957243755
 30
0.0
  0
VERTEX
  5
2A3
330
2A1
100
AcDbEntity
  8
DRYERJACK 486AL
 62
   253
420
 11184810
100
AcDbVertex
100
AcDb2dVertex
 10
54.14140968712083
 20
-37.38621061321834
 30
0.0
  0
VERTEX
  5
2A4
330
2A1
100
AcDbEntity
  8
DRYERJACK 486AL
 62
   253
420
 11184810
100
AcDbVertex
100
AcDb2dVertex
 10
54.71179678355884
 20
-36.78303334863806
 30
0.0
  0
VERTEX
  5
2A5
330
2A1
100
AcDbEntity
  8
DRYERJACK 486AL
 62
   253
420
 11184810
100
AcDbVertex
100
AcDb2dVertex
 10
55.24921665701672
 20
-36.41724989839412
 30
0.0
  0
VERTEX
  5
2A6
330
2A1
100
AcDbEntity
  8
DRYERJACK 486AL
 62
   253
420
 11184810
100
AcDbVertex
100
AcDb2dVertex
 10
56.27914858432936
 20
-36.02774159354145
 30
0.0
  0
VERTEX
  5
2A7
330
2A1
100
AcDbEntity
  8
DRYERJACK 486AL
 62
   253
420
 11184810
100
AcDbVertex
100
AcDb2dVertex
 10
57.30765335922936
 20
-35.92647971543858
 30
0.0
  0
VERTEX
  5
2A8
330
2A1
100
AcDbEntity
  8
DRYERJACK 486AL
 62
   253
420
 11184810
100
AcDbVertex
100
AcDb2dVertex
 10
58.15271179090327
 20
-36.02524349102404
 30
0.0
  0
VERTEX
  5
2A9
330
2A1
100
AcDbEntity
  8
DRYERJACK 486AL
 62
   253
420
 11184810
100
AcDbVertex
100
AcDb2dVertex
 10
58.89271867878541
 20
-36.24832123579904
 30
0.0
  0
VERTEX
  5
2AA
330
2A1
100
AcDbEntity
  8
DRYERJACK 486AL
 62
   253
420
 11184810
100
AcDbVertex
100
AcDb2dVertex
 10
59.56818777305443
 20
-36.57956590861312
 30
0.0
  0
VERTEX
  5
2AB
330
2A1
100
AcDbEntity
  8
DRYERJACK 486AL
 62
   253
420
 11184810
100
AcDbVertex
100
AcDb2dVertex
 10
60.19874062064761
 20
-37.03042977361056
 30
0.0
  0
VERTEX
  5
2AC
330
2A1
100
AcDbEntity
  8
DRYERJACK 486AL
 62
   253
420
 11184810
100
AcDbVertex
100
AcDb2dVertex
 10
60.79230688218092
 20
-37.65054115490798
 30
0.0
  0
VERTEX
  5
2AD
330
2A1
100
AcDbEntity
  8
DRYERJACK 486AL
 62
   253
420
 11184810
100
AcDbVertex
100
AcDb2dVertex
 10
60.66522238222413
 20
-37.83634372398853
 30
0.0
  0
VERTEX
  5
2AE
330
2A1
100
AcDbEntity
  8
DRYERJACK 486AL
 62
   253
420
 11184810
100
AcDbVertex
100
AcDb2dVertex
 10
60.5417719326169
 20
-37.92948732876231
 30
0.0
  0
VERTEX
  5
2AF
330
2A1
100
AcDbEntity
  8
DRYERJACK 486AL
 62
   253
420
 11184810
100
AcDbVertex
100
AcDb2dVertex
 10
60.35829763552357
 20
-38.00980248508195
 30
0.0
  0
VERTEX
  5
2B0
330
2A1
100
AcDbEntity
  8
DRYERJACK 486AL
 62
   253
420
 11184810
100
AcDbVertex
100
AcDb2dVertex
 10
60.13277707756729
 20
-38.05644446265004
 30
0.0
  0
VERTEX
  5
2B1
330
2A1
100
AcDbEntity
  8
DRYERJACK 486AL
 62
   253
420
 11184810
100
AcDbVertex
100
AcDb2dVertex
 10
59.86585292731665
 20
-38.06493763005876
 30
0.0
  0
VERTEX
  5
2B2
330
2A1
100
AcDbEntity
  8
DRYERJACK 486AL
 62
   253
420
 11184810
100
AcDbVertex
100
AcDb2dVertex
 10
59.66608157652945
 20
-38.1032265608909
 30
0.0
  0
VERTEX
  5
2B3
330
2A1
100
AcDbEntity
  8
DRYERJACK 486AL
 62
   253
420
 11184810
100
AcDbVertex
100
AcDb2dVertex
 10
59.45070101232821
 20
-38.19074011116518
 30
0.0
  0
VERTEX
  5
2B4
330
2A1
100
AcDbEntity
  8
DRYERJACK 486AL
 62
   253
420
 11184810
100
AcDbVertex
100
AcDb2dVertex
 10
59.22849768059588
 20
-38.35497047880107
 30
0.0
  0
VERTEX
  5
2B5
330
2A1
100
AcDbEntity
  8
DRYERJACK 486AL
 62
   253
420
 11184810
100
AcDbVertex
100
AcDb2dVertex
 10
57.8243383669178
 20
-39.86277548463225
 30
0.0
  0
VERTEX
  5
2B6
330
2A1
100
AcDbEntity
  8
DRYERJACK 486AL
 62
   253
420
 11184810
100
AcDbVertex
100
AcDb2dVertex
 10
53.75311078551655
 20
-38.16643065904839
 30
0.0
  0
SEQEND
  5
2B7
330
2A1
100
AcDbEntity
  8
DRYERJACK 486AL
 62
   253
420
 11184810
  0
POLYLINE
  5
2B8
330
2A0
100
AcDbEntity
  8
DRYERJACK 486AL
 62
   253
420
 11184810
100
AcDb2dPolyline
 66
     1
 10
0.0
 20
0.0
 30
0.0
  0
VERTEX
  5
2B9
330
2B8
100
AcDbEntity
  8
DRYERJACK 486AL
 62
   253
420
 11184810
100
AcDbVertex
100
AcDb2dVertex
 10
57.31102065079133
 20
-38.77291235885671
 30
0.0
  0
VERTEX
  5
2BA
330
2B8
100
AcDbEntity
  8
DRYERJACK 486AL
 62
   253
420
 11184810
100
AcDbVertex
100
AcDb2dVertex
 10
57.03217449694518
 20
-39.44214312808748
 30
0.0
  0
VERTEX
  5
2BB
330
2B8
100
AcDbEntity
  8
DRYERJACK 486AL
 62
   253
420
 11184810
100
AcDbVertex
100
AcDb2dVertex
 10
54.26294372771441
 20
-38.28829697424132
 30
0.0
  0
VERTEX
  5
2BC
330
2B8
100
AcDbEntity
  8
DRYERJACK 486AL
 62
   253
420
 11184810
100
AcDbVertex
100
AcDb2dVertex
 10
54.54178988156057
 20
-37.61906620501055
 30
0.0
  0
VERTEX
  5
2BD
330
2B8
100
AcDbEntity
  8
DRYERJACK 486AL
 62
   253
420
 11184810
100
AcDbVertex
100
AcDb2dVertex
 10
57.31102065079133
 20
-38.77291235885671
 30
0.0
  0
SEQEND
  5
2BE
330
2B8
100
AcDbEntity
  8
DRYERJACK 486AL
 62
   253
420
 11184810
  0
POLYLINE
  5
2BF
330
2A0
100
AcDbEntity
  8
DRYERJACK 486AL
 62
   253
420
 11184810
100
AcDb2dPolyline
 66
     1
 10
0.0
 20
0.0
 30
0.0
  0
VERTEX
  5
2C0
330
2BF
100
AcDbEntity
  8
DRYERJACK 486AL
 62
   253
420
 11184810
100
AcDbVertex
100
AcDb2dVertex
 10
56.98730270207339
 20
-39.54983543577979
 30
0.0
  0
VERTEX
  5
2C1
330
2BF
100
AcDbEntity
  8
DRYERJACK 486AL
 62
   253
420
 11184810
100
AcDbVertex
100
AcDb2dVertex
 10
56.37191808668877
 20
-41.02675851270288
 30
0.0
  0
VERTEX
  5
2C2
330
2BF
100
AcDbEntity
  8
DRYERJACK 486AL
 62
   253
420
 11184810
100
AcDbVertex
100
AcDb2dVertex
 10
53.602687317458
 20
-39.87291235885672
 30
0.0
  0
VERTEX
  5
2C3
330
2BF
100
AcDbEntity
  8
DRYERJACK 486AL
 62
   253
420
 11184810
100
AcDbVertex
100
AcDb2dVertex
 10
54.21807193284262
 20
-38.39598928193364
 30
0.0
  0
VERTEX
  5
2C4
330
2BF
100
AcDbEntity
  8
DRYERJACK 486AL
 62
   253
420
 11184810
100
AcDbVertex
100
AcDb2dVertex
 10
56.98730270207339
 20
-39.54983543577979
 30
0.0
  0
SEQEND
  5
2C5
330
2BF
100
AcDbEntity
  8
DRYERJACK 486AL
 62
   253
420
 11184810
  0
INSERT
  5
2DE
330
2A0
100
AcDbEntity
  8
DRYERJACK 486AL
100
AcDbBlockReference
  2
PD_4186
 10
0.0
 20
0.0
 30
0.0
  0
POLYLINE
  5
2DF
330
2A0
100
AcDbEntity
  8
DRYERJACK 486AL
 62
     7
100
AcDb2dPolyline
 66
     1
 10
0.0
 20
0.0
 30
0.0
  0
VERTEX
  5
2E0
330
2DF
100
AcDbEntity
  8
DRYERJACK 486AL
 62
     7
100
AcDbVertex
100
AcDb2dVertex
 10
53.7670339217942
 20
-38.0497082515383
 30
0.0
  0
VERTEX
  5
2E1
330
2DF
100
AcDbEntity
  8
DRYERJACK 486AL
 62
     7
100
AcDbVertex
100
AcDb2dVertex
 10
54.02347020201294
 20
-37.55869468045148
 30
0.0
  0
VERTEX
  5
2E2
330
2DF
100
AcDbEntity
  8
DRYERJACK 486AL
 62
     7
100
AcDbVertex
100
AcDb2dVertex
 10
54.3623166877851
 20
-37.1158788862139
 30
0.0
  0
VERTEX
  5
2E3
330
2DF
100
AcDbEntity
  8
DRYERJACK 486AL
 62
     7
100
AcDbVertex
100
AcDb2dVertex
 10
54.77571792598846
 20
-36.73152663476817
 30
0.0
  0
VERTEX
  5
2E4
330
2DF
100
AcDbEntity
  8
DRYERJACK 486AL
 62
     7
100
AcDbVertex
100
AcDb2dVertex
 10
55.25409006616646
 20
-36.41454833605043
 30
0.0
  0
VERTEX
  5
2E5
330
2DF
100
AcDbEntity
  8
DRYERJACK 486AL
 62
     7
100
AcDbVertex
100
AcDb2dVertex
 10
55.78634304222741
 20
-36.1722924746131
 30
0.0
  0
VERTEX
  5
2E6
330
2DF
100
AcDbEntity
  8
DRYERJACK 486AL
 62
     7
100
AcDbVertex
100
AcDb2dVertex
 10
56.36013767262993
 20
-36.01037525024876
 30
0.0
  0
VERTEX
  5
2E7
330
2DF
100
AcDbEntity
  8
DRYERJACK 486AL
 62
     7
100
AcDbVertex
100
AcDb2dVertex
 10
56.96217171871971
 20
-35.93255037804396
 30
0.0
  0
VERTEX
  5
2E8
330
2DF
100
AcDbEntity
  8
DRYERJACK 486AL
 62
     7
100
AcDbVertex
100
AcDb2dVertex
 10
57.57848826954853
 20
-35.94062206627891
 30
0.0
  0
VERTEX
  5
2E9
330
2DF
100
AcDbEntity
  8
DRYERJACK 486AL
 62
     7
100
AcDbVertex
100
AcDb2dVertex
 10
58.19479930391277
 20
-36.03440318959977
 30
0.0
  0
VERTEX
  5
2EA
330
2DF
100
AcDbEntity
  8
DRYERJACK 486AL
 62
     7
100
AcDbVertex
100
AcDb2dVertex
 10
58.7968169284966
 20
-36.21171962713196
 30
0.0
  0
VERTEX
  5
2EB
330
2DF
100
AcDbEntity
  8
DRYERJACK 486AL
 62
     7
100
AcDbVertex
100
AcDb2dVertex
 10
59.37058461305037
 20
-36.46846066496426
 30
0.0
  0
VERTEX
  5
2EC
330
2DF
100
AcDbEntity
  8
DRYERJACK 486AL
 62
     7
100
AcDbVertex
100
AcDb2dVertex
 10
59.90280074360341
 20
-36.79867429452663
 30
0.0
  0
VERTEX
  5
2ED
330
2DF
100
AcDbEntity
  8
DRYERJACK 486AL
 62
     7
100
AcDbVertex
100
AcDb2dVertex
 10
60.381126992801
 20
-37.19470519756651
 30
0.0
  0
VERTEX
  5
2EE
330
2DF
100
AcDbEntity
  8
DRYERJACK 486AL
 62
     7
100
AcDbVertex
100
AcDb2dVertex
 10
60.7944743584387
 20
-37.64737221882802
 30
0.0
  0
SEQEND
  5
2EF
330
2DF
100
AcDbEntity
  8
DRYERJACK 486AL
 62
     7
  0
LINE
  5
2F0
330
2A0
100
AcDbEntity
  8
DRYERJACK 486AL
 62
     7
100
AcDbLine
 10
60.7944743584387
 20
-37.64737221882802
 30
0.0
 11
60.65092036746368
 21
-37.85725383565772
 31
0.0
  0
LINE
  5
2F1
330
2A0
100
AcDbEntity
  8
DRYERJACK 486AL
 62
     7
100
AcDbLine
 10
57.85948157273334
 20
-39.8189535758683
 30
0.0
 11
59.23293854119425
 21
-38.35022156108191
 31
0.0
  0
POLYLINE
  5
2F2
330
2A0
100
AcDbEntity
  8
DRYERJACK 486AL
 62
     7
100
AcDb2dPolyline
 66
     1
 10
0.0
 20
0.0
 30
0.0
  0
VERTEX
  5
2F3
330
2F2
100
AcDbEntity
  8
DRYERJACK 486AL
 62
     7
100
AcDbVertex
100
AcDb2dVertex
 10
60.65092036746368
 20
-37.85725383565772
 30
0.0
  0
VERTEX
  5
2F4
330
2F2
100
AcDbEntity
  8
DRYERJACK 486AL
 62
     7
100
AcDbVertex
100
AcDb2dVertex
 10
60.32533223049712
 20
-38.01986187930032
 30
0.0
  0
VERTEX
  5
2F5
330
2F2
100
AcDbEntity
  8
DRYERJACK 486AL
 62
     7
100
AcDbVertex
100
AcDb2dVertex
 10
59.94683885316496
 20
-38.05941044351028
 30
0.0
  0
SEQEND
  5
2F6
330
2F2
100
AcDbEntity
  8
DRYERJACK 486AL
 62
     7
  0
POLYLINE
  5
2F7
330
2A0
100
AcDbEntity
  8
DRYERJACK 486AL
 62
     7
100
AcDb2dPolyline
 66
     1
 10
0.0
 20
0.0
 30
0.0
  0
VERTEX
  5
2F8
330
2F7
100
AcDbEntity
  8
DRYERJACK 486AL
 62
     7
100
AcDbVertex
100
AcDb2dVertex
 10
59.23293854119424
 20
-38.35022156108191
 30
0.0
  0
VERTEX
  5
2F9
330
2F7
100
AcDbEntity
  8
DRYERJACK 486AL
 62
     7
100
AcDbVertex
100
AcDb2dVertex
 10
59.55438517830953
 20
-38.14178061434484
 30
0.0
  0
VERTEX
  5
2FA
330
2F7
100
AcDbEntity
  8
DRYERJACK 486AL
 62
     7
100
AcDbVertex
100
AcDb2dVertex
 10
59.94683885316496
 20
-38.05941044351028
 30
0.0
  0
SEQEND
  5
2FB
330
2F7
100
AcDbEntity
  8
DRYERJACK 486AL
 62
     7
  0
LINE
  5
2FC
330
2A0
100
AcDbEntity
  8
DRYERJACK 486AL
 62
     7
100
AcDbLine
 10
57.85479124000521
 20
-39.81400255912293
 30
0.0
 11
58.18293726108482
 21
-39.25649416275467
 31
0.0
  0
LINE
  5
2FD
330
2A0
100
AcDbEntity
  8
DRYERJACK 486AL
 62
     7
100
AcDbLine
 10
58.18605171436338
 20
-39.24901947488613
 30
0.0
 11
58.15204731760378
 21
-39.49802227827463
 31
0.0
  0
LINE
  5
2FE
330
2A0
100
AcDbEntity
  8
DRYERJACK 486AL
 62
     7
100
AcDbLine
 10
51.74365417054283
 20
-37.329157069476
 30
0.0
 11
59.98846584355162
 21
-40.764495266563
 31
0.0
  0
LINE
  5
2FF
330
2A0
100
AcDbEntity
  8
DRYERJACK 486AL
 62
     7
100
AcDbLine
 10
53.7670339217942
 20
-38.04970825153831
 30
0.0
 11
53.73870580811204
 21
-38.1176957243755
 31
0.0
  0
ARC
  5
300
330
2A0
100
AcDbEntity
  8
DRYERJACK 486AL
 62
     7
100
AcDbCircle
 10
55.25980986404069
 20
-39.41335217853226
 30
0.0
 40
2.921341684819557
100
AcDbArc
 50
359.9534965422338
 51
92.22649784686847
  0
ENDBLK
  5
302
330
2A0
100
AcDbEntity
  8
0
100
AcDbBlockEnd
  0
BLOCK
  5
2DC
330
2C6
100
AcDbEntity
  8
0
100
AcDbBlockBegin
  2
PD_4186
 70
     0
 10
0.0
 20
0.0
 30
0.0
  3
PD_4186
  1

  0
POLYLINE
  5
2C7
330
2C6
100
AcDbEntity
  8
DRYERJACK 486AL
 62
     7
100
AcDb2dPolyline
 66
     1
 10
0.0
 20
0.0
 30
0.0
  0
VERTEX
  5
2C8
330
2C7
100
AcDbEntity
  8
DRYERJACK 486AL
 62
     7
100
AcDbVertex
100
AcDb2dVertex
 10
56.98849637774629
 20
-39.54697061416482
 30
0.0
  0
VERTEX
  5
2C9
330
2C7
100
AcDbEntity
  8
DRYERJACK 486AL
 62
     7
100
AcDbVertex
100
AcDb2dVertex
 10
56.36910535210527
 20
-41.03350907570328
 30
0.0
  0
VERTEX
  5
2CA
330
2C7
100
AcDbEntity
  8
DRYERJACK 486AL
 62
     7
100
AcDbVertex
100
AcDb2dVertex
 10
53.5998745828745
 20
-39.87966292185713
 30
0.0
  0
VERTEX
  5
2CB
330
2C7
100
AcDbEntity
  8
DRYERJACK 486AL
 62
     7
100
AcDbVertex
100
AcDb2dVertex
 10
54.21926560851552
 20
-38.39312446031867
 30
0.0
  0
VERTEX
  5
2CC
330
2C7
100
AcDbEntity
  8
DRYERJACK 486AL
 62
     7
100
AcDbVertex
100
AcDb2dVertex
 10
56.98849637774629
 20
-39.54697061416482
 30
0.0
  0
SEQEND
  5
2CD
330
2C7
100
AcDbEntity
  8
DRYERJACK 486AL
 62
     7
  0
POLYLINE
  5
2CE
330
2C6
100
AcDbEntity
  8
DRYERJACK 486AL
 62
     7
100
AcDb2dPolyline
 66
     1
 10
0.0
 20
0.0
 30
0.0
  0
VERTEX
  5
2CF
330
2CE
100
AcDbEntity
  8
DRYERJACK 486AL
 62
     7
100
AcDbVertex
100
AcDb2dVertex
 10
57.31221432646424
 20
-38.77004753724174
 30
0.0
  0
VERTEX
  5
2D0
330
2CE
100
AcDbEntity
  8
DRYERJACK 486AL
 62
     7
100
AcDbVertex
100
AcDb2dVertex
 10
57.03016304441296
 20
-39.44697061416482
 30
0.0
  0
VERTEX
  5
2D1
330
2CE
100
AcDbEntity
  8
DRYERJACK 486AL
 62
     7
100
AcDbVertex
100
AcDb2dVertex
 10
54.26093227518218
 20
-38.29312446031866
 30
0.0
  0
VERTEX
  5
2D2
330
2CE
100
AcDbEntity
  8
DRYERJACK 486AL
 62
     7
100
AcDbVertex
100
AcDb2dVertex
 10
54.54298355723348
 20
-37.61620138339559
 30
0.0
  0
VERTEX
  5
2D3
330
2CE
100
AcDbEntity
  8
DRYERJACK 486AL
 62
     7
100
AcDbVertex
100
AcDb2dVertex
 10
57.31221432646424
 20
-38.77004753724174
 30
0.0
  0
SEQEND
  5
2D4
330
2CE
100
AcDbEntity
  8
DRYERJACK 486AL
 62
     7
  0
LINE
  5
2D5
330
2C6
100
AcDbEntity
  8
DRYERJACK 486AL
 62
     7
100
AcDbLine
 10
54.54382417462334
 20
-37.61418390165989
 30
0.0
 11
53.59742353444993
 21
-39.88554543807606
 31
0.0
  0
LINE
  5
2D6
330
2C6
100
AcDbEntity
  8
DRYERJACK 486AL
 62
     7
100
AcDbLine
 10
57.31305494385411
 20
-38.76803005550605
 30
0.0
 11
56.3666543036807
 21
-41.03939159192223
 31
0.0
  0
LINE
  5
2D7
330
2C6
100
AcDbEntity
  8
DRYERJACK 486AL
 62
     7
100
AcDbLine
 10
54.54382417462334
 20
-37.61418390165989
 30
0.0
 11
55.03492649276038
 21
-37.81880986755032
 31
0.0
  0
LINE
  5
2D8
330
2C6
100
AcDbEntity
  8
DRYERJACK 486AL
 62
     7
100
AcDbLine
 10
55.03492649276038
 20
-37.81880986755032
 30
0.0
 11
57.31305494385411
 21
-38.76803005550605
 31
0.0
  0
LINE
  5
2D9
330
2C6
100
AcDbEntity
  8
DRYERJACK 486AL
 62
     7
100
AcDbLine
 10
54.25780198311074
 20
-38.30063716129015
 30
0.0
 11
57.0270327523415
 21
-39.45448331513632
 31
0.0
  0
LINE
  5
2DA
330
2C6
100
AcDbEntity
  8
DRYERJACK 486AL
 62
     7
100
AcDbLine
 10
54.22023666384746
 20
-38.39079392752203
 30
0.0
 11
56.98946743307822
 21
-39.54464008136819
 31
0.0
  0
LINE
  5
2DB
330
2C6
100
AcDbEntity
  8
DRYERJACK 486AL
 62
     7
100
AcDbLine
 10
53.59742353444993
 20
-39.88554543807606
 30
0.0
 11
56.3666543036807
 21
-41.03939159192223
 31
0.0
  0
ENDBLK
  5
2DD
330
2C6
100
AcDbEntity
  8
0
100
AcDbBlockEnd
  0
BLOCK
  5
365
330
304
100
AcDbEntity
  8
0
100
AcDbBlockBegin
  2
PD_4187
 70
     0
 10
0.0
 20
0.0
 30
0.0
  3
PD_4187
  1

  0
POLYLINE
  5
305
330
304
100
AcDbEntity
  8
DRYERJACK 486AL
 62
   253
420
 11184810
100
AcDb2dPolyline
 66
     1
 10
0.0
 20
0.0
 30
0.0
  0
VERTEX
  5
306
330
305
100
AcDbEntity
  8
DRYERJACK 486AL
 62
   253
420
 11184810
100
AcDbVertex
100
AcDb2dVertex
 10
71.16026927911696
 20
-37.71572956779831
 30
0.0
  0
VERTEX
  5
307
330
305
100
AcDbEntity
  8
DRYERJACK 486AL
 62
   253
420
 11184810
100
AcDbVertex
100
AcDb2dVertex
 10
71.61234658782283
 20
-37.01368470529551
 30
0.0
  0
VERTEX
  5
308
330
305
100
AcDbEntity
  8
DRYERJACK 486AL
 62
   253
420
 11184810
100
AcDbVertex
100
AcDb2dVertex
 10
72.22288191158847
 20
-36.45118059800036
 30
0.0
  0
VERTEX
  5
309
330
305
100
AcDbEntity
  8
DRYERJACK 486AL
 62
   253
420
 11184810
100
AcDbVertex
100
AcDb2dVertex
 10
72.78419494290239
 20
-36.12323954577138
 30
0.0
  0
VERTEX
  5
30A
330
305
100
AcDbEntity
  8
DRYERJACK 486AL
 62
   253
420
 11184810
100
AcDbVertex
100
AcDb2dVertex
 10
73.83848525587604
 20
-35.8055157184983
 30
0.0
  0
VERTEX
  5
30B
330
305
100
AcDbEntity
  8
DRYERJACK 486AL
 62
   253
420
 11184810
100
AcDbVertex
100
AcDb2dVertex
 10
74.8715198412585
 20
-35.77525707753934
 30
0.0
  0
VERTEX
  5
30C
330
305
100
AcDbEntity
  8
DRYERJACK 486AL
 62
   253
420
 11184810
100
AcDbVertex
100
AcDb2dVertex
 10
75.70778060764984
 20
-35.93192860304933
 30
0.0
  0
VERTEX
  5
30D
330
305
100
AcDbEntity
  8
DRYERJACK 486AL
 62
   253
420
 11184810
100
AcDbVertex
100
AcDb2dVertex
 10
76.43068570680961
 20
-36.20539174852915
 30
0.0
  0
VERTEX
  5
30E
330
305
100
AcDbEntity
  8
DRYERJACK 486AL
 62
   253
420
 11184810
100
AcDbVertex
100
AcDb2dVertex
 10
77.08176383483872
 20
-36.58232516676428
 30
0.0
  0
VERTEX
  5
30F
330
305
100
AcDbEntity
  8
DRYERJACK 486AL
 62
   253
420
 11184810
100
AcDbVertex
100
AcDb2dVertex
 10
77.67980210232554
 20
-37.07550398726418
 30
0.0
  0
VERTEX
  5
310
330
305
100
AcDbEntity
  8
DRYERJACK 486AL
 62
   253
420
 11184810
100
AcDbVertex
100
AcDb2dVertex
 10
78.22929684669205
 20
-37.73498450855257
 30
0.0
  0
VERTEX
  5
311
330
305
100
AcDbEntity
  8
DRYERJACK 486AL
 62
   253
420
 11184810
100
AcDbVertex
100
AcDb2dVertex
 10
78.08972988988243
 20
-37.91160310715731
 30
0.0
  0
VERTEX
  5
312
330
305
100
AcDbEntity
  8
DRYERJACK 486AL
 62
   253
420
 11184810
100
AcDbVertex
100
AcDb2dVertex
 10
77.96016350246776
 20
-37.99603234303443
 30
0.0
  0
VERTEX
  5
313
330
305
100
AcDbEntity
  8
DRYERJACK 486AL
 62
   253
420
 11184810
100
AcDbVertex
100
AcDb2dVertex
 10
77.77159812845817
 20
-38.06353376341326
 30
0.0
  0
VERTEX
  5
314
330
305
100
AcDbEntity
  8
DRYERJACK 486AL
 62
   253
420
 11184810
100
AcDbVertex
100
AcDb2dVertex
 10
77.54340291454434
 20
-38.09454892872316
 30
0.0
  0
VERTEX
  5
315
330
305
100
AcDbEntity
  8
DRYERJACK 486AL
 62
   253
420
 11184810
100
AcDbVertex
100
AcDb2dVertex
 10
77.27652693918363
 20
-38.08465703027457
 30
0.0
  0
VERTEX
  5
316
330
305
100
AcDbEntity
  8
DRYERJACK 486AL
 62
   253
420
 11184810
100
AcDbVertex
100
AcDb2dVertex
 10
77.07459462236132
 20
-38.10911054213661
 30
0.0
  0
VERTEX
  5
317
330
305
100
AcDbEntity
  8
DRYERJACK 486AL
 62
   253
420
 11184810
100
AcDbVertex
100
AcDb2dVertex
 10
76.85370332405775
 20
-38.18159808072786
 30
0.0
  0
VERTEX
  5
318
330
305
100
AcDbEntity
  8
DRYERJACK 486AL
 62
   253
420
 11184810
100
AcDbVertex
100
AcDb2dVertex
 10
76.62072714844483
 20
-38.33015122234238
 30
0.0
  0
VERTEX
  5
319
330
305
100
AcDbEntity
  8
DRYERJACK 486AL
 62
   253
420
 11184810
100
AcDbVertex
100
AcDb2dVertex
 10
75.11615509303265
 20
-39.73777412776529
 30
0.0
  0
VERTEX
  5
31A
330
305
100
AcDbEntity
  8
DRYERJACK 486AL
 62
   253
420
 11184810
100
AcDbVertex
100
AcDb2dVertex
 10
71.17128705601573
 20
-37.7653401092568
 30
0.0
  0
SEQEND
  5
31B
330
305
100
AcDbEntity
  8
DRYERJACK 486AL
 62
   253
420
 11184810
  0
POLYLINE
  5
31C
330
304
100
AcDbEntity
  8
DRYERJACK 486AL
 62
   253
420
 11184810
100
AcDb2dPolyline
 66
     1
 10
0.0
 20
0.0
 30
0.0
  0
VERTEX
  5
31D
330
31C
100
AcDbEntity
  8
DRYERJACK 486AL
 62
   253
420
 11184810
100
AcDbVertex
100
AcDb2dVertex
 10
74.6790386339359
 20
-38.61517628712902
 30
0.0
  0
VERTEX
  5
31E
330
31C
100
AcDbEntity
  8
DRYERJACK 486AL
 62
   253
420
 11184810
100
AcDbVertex
100
AcDb2dVertex
 10
74.35480877719843
 20
-39.26363600060395
 30
0.0
  0
VERTEX
  5
31F
330
31C
100
AcDbEntity
  8
DRYERJACK 486AL
 62
   253
420
 11184810
100
AcDbVertex
100
AcDb2dVertex
 10
71.6715272041987
 20
-37.92199521410406
 30
0.0
  0
VERTEX
  5
320
330
31C
100
AcDbEntity
  8
DRYERJACK 486AL
 62
   253
420
 11184810
100
AcDbVertex
100
AcDb2dVertex
 10
71.99575706093617
 20
-37.27353550062913
 30
0.0
  0
VERTEX
  5
321
330
31C
100
AcDbEntity
  8
DRYERJACK 486AL
 62
   253
420
 11184810
100
AcDbVertex
100
AcDb2dVertex
 10
74.6790386339359
 20
-38.61517628712902
 30
0.0
  0
SEQEND
  5
322
330
31C
100
AcDbEntity
  8
DRYERJACK 486AL
 62
   253
420
 11184810
  0
POLYLINE
  5
323
330
304
100
AcDbEntity
  8
DRYERJACK 486AL
 62
   253
420
 11184810
100
AcDb2dPolyline
 66
     1
 10
0.0
 20
0.0
 30
0.0
  0
VERTEX
  5
324
330
323
100
AcDbEntity
  8
DRYERJACK 486AL
 62
   253
420
 11184810
100
AcDbVertex
100
AcDb2dVertex
 10
74.30263385772344
 20
-39.36798583955394
 30
0.0
  0
VERTEX
  5
325
330
323
100
AcDbEntity
  8
DRYERJACK 486AL
 62
   253
420
 11184810
100
AcDbVertex
100
AcDb2dVertex
 10
73.5870921049235
 20
-40.79906934515381
 30
0.0
  0
VERTEX
  5
326
330
323
100
AcDbEntity
  8
DRYERJACK 486AL
 62
   253
420
 11184810
100
AcDbVertex
100
AcDb2dVertex
 10
70.90381053192375
 20
-39.45742855865393
 30
0.0
  0
VERTEX
  5
327
330
323
100
AcDbEntity
  8
DRYERJACK 486AL
 62
   253
420
 11184810
100
AcDbVertex
100
AcDb2dVertex
 10
71.6193522847237
 20
-38.02634505305406
 30
0.0
  0
VERTEX
  5
328
330
323
100
AcDbEntity
  8
DRYERJACK 486AL
 62
   253
420
 11184810
100
AcDbVertex
100
AcDb2dVertex
 10
74.30263385772344
 20
-39.36798583955394
 30
0.0
  0
SEQEND
  5
329
330
323
100
AcDbEntity
  8
DRYERJACK 486AL
 62
   253
420
 11184810
  0
INSERT
  5
342
330
304
100
AcDbEntity
  8
DRYERJACK 486AL
100
AcDbBlockReference
  2
PD_4188
 10
0.0
 20
0.0
 30
0.0
  0
POLYLINE
  5
343
330
304
100
AcDbEntity
  8
DRYERJACK 486AL
 62
     7
100
AcDb2dPolyline
 66
     1
 10
0.0
 20
0.0
 30
0.0
  0
VERTEX
  5
344
330
343
100
AcDbEntity
  8
DRYERJACK 486AL
 62
     7
100
AcDbVertex
100
AcDb2dVertex
 10
71.19320794480814
 20
-37.64985223641594
 30
0.0
  0
VERTEX
  5
345
330
343
100
AcDbEntity
  8
DRYERJACK 486AL
 62
     7
100
AcDbVertex
100
AcDb2dVertex
 10
71.48281931596463
 20
-37.17764555867757
 30
0.0
  0
VERTEX
  5
346
330
343
100
AcDbEntity
  8
DRYERJACK 486AL
 62
     7
100
AcDbVertex
100
AcDb2dVertex
 10
71.85132949969436
 20
-36.75919243939909
 30
0.0
  0
VERTEX
  5
347
330
343
100
AcDbEntity
  8
DRYERJACK 486AL
 62
     7
100
AcDbVertex
100
AcDb2dVertex
 10
72.2901953515502
 20
-36.40419384642395
 30
0.0
  0
VERTEX
  5
348
330
343
100
AcDbEntity
  8
DRYERJACK 486AL
 62
     7
100
AcDbVertex
100
AcDb2dVertex
 10
72.78924267681285
 20
-36.12087968598599
 30
0.0
  0
VERTEX
  5
349
330
343
100
AcDbEntity
  8
DRYERJACK 486AL
 62
     7
100
AcDbVertex
100
AcDb2dVertex
 10
73.33690209809762
 20
-35.91581800939939
 30
0.0
  0
VERTEX
  5
34A
330
343
100
AcDbEntity
  8
DRYERJACK 486AL
 62
     7
100
AcDbVertex
100
AcDb2dVertex
 10
73.92047726737825
 20
-35.79376274640881
 30
0.0
  0
VERTEX
  5
34B
330
343
100
AcDbEntity
  8
DRYERJACK 486AL
 62
     7
100
AcDbVertex
100
AcDb2dVertex
 10
74.526439204488
 20
-35.7575434951863
 30
0.0
  0
VERTEX
  5
34C
330
343
100
AcDbEntity
  8
DRYERJACK 486AL
 62
     7
100
AcDbVertex
100
AcDb2dVertex
 10
75.14073993847045
 20
-35.80799992396527
 30
0.0
  0
VERTEX
  5
34D
330
343
100
AcDbEntity
  8
DRYERJACK 486AL
 62
     7
100
AcDbVertex
100
AcDb2dVertex
 10
75.74913818065544
 20
-35.94396230507363
 30
0.0
  0
VERTEX
  5
34E
330
343
100
AcDbEntity
  8
DRYERJACK 486AL
 62
     7
100
AcDbVertex
100
AcDb2dVertex
 10
76.33752947940543
 20
-36.16227863264436
 30
0.0
  0
VERTEX
  5
34F
330
343
100
AcDbEntity
  8
DRYERJACK 486AL
 62
     7
100
AcDbVertex
100
AcDb2dVertex
 10
76.89227320257893
 20
-36.45788769533526
 30
0.0
  0
VERTEX
  5
350
330
343
100
AcDbEntity
  8
DRYERJACK 486AL
 62
     7
100
AcDbVertex
100
AcDb2dVertex
 10
77.40050876730078
 20
-36.8239364100188
 30
0.0
  0
VERTEX
  5
351
330
343
100
AcDbEntity
  8
DRYERJACK 486AL
 62
     7
100
AcDbVertex
100
AcDb2dVertex
 10
77.85045378590763
 20
-37.25193869630346
 30
0.0
  0
VERTEX
  5
352
330
343
100
AcDbEntity
  8
DRYERJACK 486AL
 62
     7
100
AcDbVertex
100
AcDb2dVertex
 10
78.23167721617344
 20
-37.73197220871043
 30
0.0
  0
SEQEND
  5
353
330
343
100
AcDbEntity
  8
DRYERJACK 486AL
 62
     7
  0
LINE
  5
354
330
304
100
AcDbEntity
  8
DRYERJACK 486AL
 62
     7
100
AcDbLine
 10
78.23167721617344
 20
-37.73197220871044
 30
0.0
 11
78.0740231067811
 21
-37.93147966019936
 31
0.0
  0
LINE
  5
355
330
304
100
AcDbEntity
  8
DRYERJACK 486AL
 62
     7
100
AcDbLine
 10
75.15423005997378
 20
-39.69647398859917
 30
0.0
 11
76.62548422113404
 21
-38.3257190984963
 31
0.0
  0
POLYLINE
  5
356
330
304
100
AcDbEntity
  8
DRYERJACK 486AL
 62
     7
100
AcDb2dPolyline
 66
     1
 10
0.0
 20
0.0
 30
0.0
  0
VERTEX
  5
357
330
356
100
AcDbEntity
  8
DRYERJACK 486AL
 62
     7
100
AcDbVertex
100
AcDb2dVertex
 10
78.07402310678111
 20
-37.93147966019937
 30
0.0
  0
VERTEX
  5
358
330
356
100
AcDbEntity
  8
DRYERJACK 486AL
 62
     7
100
AcDbVertex
100
AcDb2dVertex
 10
77.73801873325243
 20
-38.07130123135431
 30
0.0
  0
VERTEX
  5
359
330
356
100
AcDbEntity
  8
DRYERJACK 486AL
 62
     7
100
AcDbVertex
100
AcDb2dVertex
 10
77.3577012369806
 20
-38.08471494243273
 30
0.0
  0
SEQEND
  5
35A
330
356
100
AcDbEntity
  8
DRYERJACK 486AL
 62
     7
  0
POLYLINE
  5
35B
330
304
100
AcDbEntity
  8
DRYERJACK 486AL
 62
     7
100
AcDb2dPolyline
 66
     1
 10
0.0
 20
0.0
 30
0.0
  0
VERTEX
  5
35C
330
35B
100
AcDbEntity
  8
DRYERJACK 486AL
 62
     7
100
AcDbVertex
100
AcDb2dVertex
 10
76.62548422113406
 20
-38.32571909849631
 30
0.0
  0
VERTEX
  5
35D
330
35B
100
AcDbEntity
  8
DRYERJACK 486AL
 62
     7
100
AcDbVertex
100
AcDb2dVertex
 10
76.96051030840364
 20
-38.13988828932246
 30
0.0
  0
VERTEX
  5
35E
330
35B
100
AcDbEntity
  8
DRYERJACK 486AL
 62
     7
100
AcDbVertex
100
AcDb2dVertex
 10
77.3577012369806
 20
-38.08471494243273
 30
0.0
  0
SEQEND
  5
35F
330
35B
100
AcDbEntity
  8
DRYERJACK 486AL
 62
     7
  0
LINE
  5
360
330
304
100
AcDbEntity
  8
DRYERJACK 486AL
 62
     7
100
AcDbLine
 10
75.14989148210151
 20
-39.6912119994354
 30
0.0
 11
75.51561764864513
 21
-39.15760184747349
 31
0.0
  0
LINE
  5
361
330
304
100
AcDbEntity
  8
DRYERJACK 486AL
 62
     7
100
AcDbLine
 10
75.5192389958518
 20
-39.15035915306014
 30
0.0
 11
75.46818326465348
 21
-39.39643232796168
 31
0.0
  0
LINE
  5
362
330
304
100
AcDbEntity
  8
DRYERJACK 486AL
 62
     7
100
AcDbLine
 10
69.22419836748463
 20
-36.79179576499126
 30
0.0
 11
77.21311409124824
 21
-40.78625362687309
 31
0.0
  0
LINE
  5
363
330
304
100
AcDbEntity
  8
DRYERJACK 486AL
 62
     7
100
AcDbLine
 10
71.19320794480814
 20
-37.64985223641594
 30
0.0
 11
71.16026927911696
 21
-37.71572956779831
 31
0.0
  0
ARC
  5
364
330
304
100
AcDbEntity
  8
DRYERJACK 486AL
 62
     7
100
AcDbCircle
 10
72.58862494393765
 20
-39.1129708822946
 30
0.0
 40
2.921341684819557
100
AcDbArc
 50
356.0083103131961
 51
88.28131161783075
  0
ENDBLK
  5
366
330
304
100
AcDbEntity
  8
0
100
AcDbBlockEnd
  0
BLOCK
  5
340
330
32A
100
AcDbEntity
  8
0
100
AcDbBlockBegin
  2
PD_4188
 70
     0
 10
0.0
 20
0.0
 30
0.0
  3
PD_4188
  1

  0
POLYLINE
  5
32B
330
32A
100
AcDbEntity
  8
DRYERJACK 486AL
 62
     7
100
AcDb2dPolyline
 66
     1
 10
0.0
 20
0.0
 30
0.0
  0
VERTEX
  5
32C
330
32B
100
AcDbEntity
  8
DRYERJACK 486AL
 62
     7
100
AcDbVertex
100
AcDb2dVertex
 10
74.30402181049624
 20
-39.36520993400833
 30
0.0
  0
VERTEX
  5
32D
330
32B
100
AcDbEntity
  8
DRYERJACK 486AL
 62
     7
100
AcDbVertex
100
AcDb2dVertex
 10
73.58382158274318
 20
-40.80561038951444
 30
0.0
  0
VERTEX
  5
32E
330
32B
100
AcDbEntity
  8
DRYERJACK 486AL
 62
     7
100
AcDbVertex
100
AcDb2dVertex
 10
70.90054000974344
 20
-39.46396960301456
 30
0.0
  0
VERTEX
  5
32F
330
32B
100
AcDbEntity
  8
DRYERJACK 486AL
 62
     7
100
AcDbVertex
100
AcDb2dVertex
 10
71.6207402374965
 20
-38.02356914750845
 30
0.0
  0
VERTEX
  5
330
330
32B
100
AcDbEntity
  8
DRYERJACK 486AL
 62
     7
100
AcDbVertex
100
AcDb2dVertex
 10
74.30402181049624
 20
-39.36520993400833
 30
0.0
  0
SEQEND
  5
331
330
32B
100
AcDbEntity
  8
DRYERJACK 486AL
 62
     7
  0
POLYLINE
  5
332
330
32A
100
AcDbEntity
  8
DRYERJACK 486AL
 62
     7
100
AcDb2dPolyline
 66
     1
 10
0.0
 20
0.0
 30
0.0
  0
VERTEX
  5
333
330
332
100
AcDbEntity
  8
DRYERJACK 486AL
 62
     7
100
AcDbVertex
100
AcDb2dVertex
 10
74.6804265867087
 20
-38.61240038158341
 30
0.0
  0
VERTEX
  5
334
330
332
100
AcDbEntity
  8
DRYERJACK 486AL
 62
     7
100
AcDbVertex
100
AcDb2dVertex
 10
74.35246995000874
 20
-39.26831365498334
 30
0.0
  0
VERTEX
  5
335
330
332
100
AcDbEntity
  8
DRYERJACK 486AL
 62
     7
100
AcDbVertex
100
AcDb2dVertex
 10
71.669188377009
 20
-37.92667286848345
 30
0.0
  0
VERTEX
  5
336
330
332
100
AcDbEntity
  8
DRYERJACK 486AL
 62
     7
100
AcDbVertex
100
AcDb2dVertex
 10
71.99714501370897
 20
-37.27075959508352
 30
0.0
  0
VERTEX
  5
337
330
332
100
AcDbEntity
  8
DRYERJACK 486AL
 62
     7
100
AcDbVertex
100
AcDb2dVertex
 10
74.6804265867087
 20
-38.61240038158341
 30
0.0
  0
SEQEND
  5
338
330
332
100
AcDbEntity
  8
DRYERJACK 486AL
 62
     7
  0
LINE
  5
339
330
32A
100
AcDbEntity
  8
DRYERJACK 486AL
 62
     7
100
AcDbLine
 10
71.99812244607492
 20
-37.26880473035162
 30
0.0
 11
70.89769004007884
 21
-39.46966954234376
 31
0.0
  0
LINE
  5
33A
330
32A
100
AcDbEntity
  8
DRYERJACK 486AL
 62
     7
100
AcDbLine
 10
74.68140401907466
 20
-38.61044551685151
 30
0.0
 11
73.58097161307859
 21
-40.81131032884364
 31
0.0
  0
LINE
  5
33B
330
32A
100
AcDbEntity
  8
DRYERJACK 486AL
 62
     7
100
AcDbLine
 10
71.99812244607492
 20
-37.26880473035162
 30
0.0
 11
72.47398231855517
 21
-37.50673466659175
 31
0.0
  0
LINE
  5
33C
330
32A
100
AcDbEntity
  8
DRYERJACK 486AL
 62
     7
100
AcDbLine
 10
72.47398231855517
 20
-37.50673466659175
 30
0.0
 11
74.68140401907466
 21
-38.61044551685151
 31
0.0
  0
LINE
  5
33D
330
32A
100
AcDbEntity
  8
DRYERJACK 486AL
 62
     7
100
AcDbLine
 10
71.66554861316118
 20
-37.93395239617911
 30
0.0
 11
74.34883018616091
 21
-39.27559318267899
 31
0.0
  0
LINE
  5
33E
330
32A
100
AcDbEntity
  8
DRYERJACK 486AL
 62
     7
100
AcDbLine
 10
71.6218693372772
 20
-38.02131094794705
 30
0.0
 11
74.30515091027695
 21
-39.36295173444694
 31
0.0
  0
LINE
  5
33F
330
32A
100
AcDbEntity
  8
DRYERJACK 486AL
 62
     7
100
AcDbLine
 10
70.89769004007884
 20
-39.46966954234376
 30
0.0
 11
73.58097161307859
 21
-40.81131032884364
 31
0.0
  0
ENDBLK
  5
341
330
32A
100
AcDbEntity
  8
0
100
AcDbBlockEnd
  0
BLOCK
  5
3C6
330
368
100
AcDbEntity
  8
0
100
AcDbBlockBegin
  2
PD_4189
 70
     0
 10
0.0
 20
0.0
 30
0.0
  3
PD_4189
  1

  0
POLYLINE
  5
369
330
368
100
AcDbEntity
  8
DRYERJACK 486AL
 62
   253
420
 11184810
100
AcDb2dPolyline
 66
     1
 10
0.0
 20
0.0
 30
0.0
  0
VERTEX
  5
36A
330
369
100
AcDbEntity
  8
DRYERJACK 486AL
 62
   253
420
 11184810
100
AcDbVertex
100
AcDb2dVertex
 10
72.43186682162568
 20
-23.72870448390159
 30
0.0
  0
VERTEX
  5
36B
330
369
100
AcDbEntity
  8
DRYERJACK 486AL
 62
   253
420
 11184810
100
AcDbVertex
100
AcDb2dVertex
 10
72.73325169409625
 20
-23.26067457556638
 30
0.0
  0
VERTEX
  5
36C
330
369
100
AcDbEntity
  8
DRYERJACK 486AL
 62
   253
420
 11184810
100
AcDbVertex
100
AcDb2dVertex
 10
73.14027524327335
 20
-22.88567183736961
 30
0.0
  0
VERTEX
  5
36D
330
369
100
AcDbEntity
  8
DRYERJACK 486AL
 62
   253
420
 11184810
100
AcDbVertex
100
AcDb2dVertex
 10
73.51448393081594
 20
-22.66704446921696
 30
0.0
  0
VERTEX
  5
36E
330
369
100
AcDbEntity
  8
DRYERJACK 486AL
 62
   253
420
 11184810
100
AcDbVertex
100
AcDb2dVertex
 10
74.21734413946504
 20
-22.45522858436824
 30
0.0
  0
VERTEX
  5
36F
330
369
100
AcDbEntity
  8
DRYERJACK 486AL
 62
   253
420
 11184810
100
AcDbVertex
100
AcDb2dVertex
 10
74.90603386305335
 20
-22.43505615706226
 30
0.0
  0
VERTEX
  5
370
330
369
100
AcDbEntity
  8
DRYERJACK 486AL
 62
   253
420
 11184810
100
AcDbVertex
100
AcDb2dVertex
 10
75.46354104064758
 20
-22.53950384073559
 30
0.0
  0
VERTEX
  5
371
330
369
100
AcDbEntity
  8
DRYERJACK 486AL
 62
   253
420
 11184810
100
AcDbVertex
100
AcDb2dVertex
 10
75.94547777342076
 20
-22.72181260438881
 30
0.0
  0
VERTEX
  5
372
330
369
100
AcDbEntity
  8
DRYERJACK 486AL
 62
   253
420
 11184810
100
AcDbVertex
100
AcDb2dVertex
 10
76.37952985877351
 20
-22.97310154987889
 30
0.0
  0
VERTEX
  5
373
330
369
100
AcDbEntity
  8
DRYERJACK 486AL
 62
   253
420
 11184810
100
AcDbVertex
100
AcDb2dVertex
 10
76.77822203709806
 20
-23.30188743021216
 30
0.0
  0
VERTEX
  5
374
330
369
100
AcDbEntity
  8
DRYERJACK 486AL
 62
   253
420
 11184810
100
AcDbVertex
100
AcDb2dVertex
 10
77.14455186667574
 20
-23.74154111107108
 30
0.0
  0
VERTEX
  5
375
330
369
100
AcDbEntity
  8
DRYERJACK 486AL
 62
   253
420
 11184810
100
AcDbVertex
100
AcDb2dVertex
 10
77.05150722880265
 20
-23.85928684347425
 30
0.0
  0
VERTEX
  5
376
330
369
100
AcDbEntity
  8
DRYERJACK 486AL
 62
   253
420
 11184810
100
AcDbVertex
100
AcDb2dVertex
 10
76.96512963719289
 20
-23.91557300072566
 30
0.0
  0
VERTEX
  5
377
330
369
100
AcDbEntity
  8
DRYERJACK 486AL
 62
   253
420
 11184810
100
AcDbVertex
100
AcDb2dVertex
 10
76.83941938785314
 20
-23.96057394764488
 30
0.0
  0
VERTEX
  5
378
330
369
100
AcDbEntity
  8
DRYERJACK 486AL
 62
   253
420
 11184810
100
AcDbVertex
100
AcDb2dVertex
 10
76.68728924524393
 20
-23.98125072451815
 30
0.0
  0
VERTEX
  5
379
330
369
100
AcDbEntity
  8
DRYERJACK 486AL
 62
   253
420
 11184810
100
AcDbVertex
100
AcDb2dVertex
 10
76.50937192833678
 20
-23.97465612555241
 30
0.0
  0
VERTEX
  5
37A
330
369
100
AcDbEntity
  8
DRYERJACK 486AL
 62
   253
420
 11184810
100
AcDbVertex
100
AcDb2dVertex
 10
76.37475038378858
 20
-23.99095846679378
 30
0.0
  0
VERTEX
  5
37B
330
369
100
AcDbEntity
  8
DRYERJACK 486AL
 62
   253
420
 11184810
100
AcDbVertex
100
AcDb2dVertex
 10
76.22748951825287
 20
-24.03928349252128
 30
0.0
  0
VERTEX
  5
37C
330
369
100
AcDbEntity
  8
DRYERJACK 486AL
 62
   253
420
 11184810
100
AcDbVertex
100
AcDb2dVertex
 10
76.07217206784425
 20
-24.1383189202643
 30
0.0
  0
VERTEX
  5
37D
330
369
100
AcDbEntity
  8
DRYERJACK 486AL
 62
   253
420
 11184810
100
AcDbVertex
100
AcDb2dVertex
 10
75.0691240309028
 20
-25.07673419054623
 30
0.0
  0
VERTEX
  5
37E
330
369
100
AcDbEntity
  8
DRYERJACK 486AL
 62
   253
420
 11184810
100
AcDbVertex
100
AcDb2dVertex
 10
72.43921200622484
 20
-23.76177817820724
 30
0.0
  0
SEQEND
  5
37F
330
369
100
AcDbEntity
  8
DRYERJACK 486AL
 62
   253
420
 11184810
  0
POLYLINE
  5
380
330
368
100
AcDbEntity
  8
DRYERJACK 486AL
 62
   253
420
 11184810
100
AcDb2dPolyline
 66
     1
 10
0.0
 20
0.0
 30
0.0
  0
VERTEX
  5
381
330
380
100
AcDbEntity
  8
DRYERJACK 486AL
 62
   253
420
 11184810
100
AcDbVertex
100
AcDb2dVertex
 10
74.77771305817164
 20
-24.32833563012206
 30
0.0
  0
VERTEX
  5
382
330
380
100
AcDbEntity
  8
DRYERJACK 486AL
 62
   253
420
 11184810
100
AcDbVertex
100
AcDb2dVertex
 10
74.56155982034666
 20
-24.76064210577201
 30
0.0
  0
VERTEX
  5
383
330
380
100
AcDbEntity
  8
DRYERJACK 486AL
 62
   253
420
 11184810
100
AcDbVertex
100
AcDb2dVertex
 10
72.77270543834683
 20
-23.86621491477209
 30
0.0
  0
VERTEX
  5
384
330
380
100
AcDbEntity
  8
DRYERJACK 486AL
 62
   253
420
 11184810
100
AcDbVertex
100
AcDb2dVertex
 10
72.98885867617182
 20
-23.43390843912213
 30
0.0
  0
VERTEX
  5
385
330
380
100
AcDbEntity
  8
DRYERJACK 486AL
 62
   253
420
 11184810
100
AcDbVertex
100
AcDb2dVertex
 10
74.77771305817164
 20
-24.32833563012206
 30
0.0
  0
SEQEND
  5
386
330
380
100
AcDbEntity
  8
DRYERJACK 486AL
 62
   253
420
 11184810
  0
POLYLINE
  5
387
330
368
100
AcDbEntity
  8
DRYERJACK 486AL
 62
   253
420
 11184810
100
AcDb2dPolyline
 66
     1
 10
0.0
 20
0.0
 30
0.0
  0
VERTEX
  5
388
330
387
100
AcDbEntity
  8
DRYERJACK 486AL
 62
   253
420
 11184810
100
AcDbVertex
100
AcDb2dVertex
 10
74.52677654069666
 20
-24.83020866507201
 30
0.0
  0
VERTEX
  5
389
330
387
100
AcDbEntity
  8
DRYERJACK 486AL
 62
   253
420
 11184810
100
AcDbVertex
100
AcDb2dVertex
 10
74.04974870549668
 20
-25.78426433547192
 30
0.0
  0
VERTEX
  5
38A
330
387
100
AcDbEntity
  8
DRYERJACK 486AL
 62
   253
420
 11184810
100
AcDbVertex
100
AcDb2dVertex
 10
72.26089432349687
 20
-24.889837144472
 30
0.0
  0
VERTEX
  5
38B
330
387
100
AcDbEntity
  8
DRYERJACK 486AL
 62
   253
420
 11184810
100
AcDbVertex
100
AcDb2dVertex
 10
72.73792215869682
 20
-23.93578147407208
 30
0.0
  0
VERTEX
  5
38C
330
387
100
AcDbEntity
  8
DRYERJACK 486AL
 62
   253
420
 11184810
100
AcDbVertex
100
AcDb2dVertex
 10
74.52677654069666
 20
-24.83020866507201
 30
0.0
  0
SEQEND
  5
38D
330
387
100
AcDbEntity
  8
DRYERJACK 486AL
 62
   253
420
 11184810
  0
INSERT
  5
3A6
330
368
100
AcDbEntity
  8
DRYERJACK 486AL
100
AcDbBlockReference
  2
PD_4190
 10
0.0
 20
0.0
 30
0.0
  0
POLYLINE
  5
3A7
330
368
100
AcDbEntity
  8
DRYERJACK 486AL
 62
     7
100
AcDb2dPolyline
 66
     1
 10
0.0
 20
0.0
 30
0.0
  0
VERTEX
  5
3A8
330
3A7
100
AcDbEntity
  8
DRYERJACK 486AL
 62
     7
100
AcDbVertex
100
AcDb2dVertex
 10
72.45382593208647
 20
-23.68478626298
 30
0.0
  0
VERTEX
  5
3A9
330
3A7
100
AcDbEntity
  8
DRYERJACK 486AL
 62
     7
100
AcDbVertex
100
AcDb2dVertex
 10
72.7089040429068
 20
-23.29005695762811
 30
0.0
  0
VERTEX
  5
3AA
330
3A7
100
AcDbEntity
  8
DRYERJACK 486AL
 62
     7
100
AcDbVertex
100
AcDb2dVertex
 10
73.04675635522833
 20
-22.95630371163588
 30
0.0
  0
VERTEX
  5
3AB
330
3A7
100
AcDbEntity
  8
DRYERJACK 486AL
 62
     7
100
AcDbVertex
100
AcDb2dVertex
 10
73.45471088763446
 20
-22.6960447608617
 30
0.0
  0
VERTEX
  5
3AC
330
3A7
100
AcDbEntity
  8
DRYERJACK 486AL
 62
     7
100
AcDbVertex
100
AcDb2dVertex
 10
73.9174663026327
 20
-22.51904175697236
 30
0.0
  0
VERTEX
  5
3AD
330
3A7
100
AcDbEntity
  8
DRYERJACK 486AL
 62
     7
100
AcDbVertex
100
AcDb2dVertex
 10
74.417665820928
 20
-22.43193363270317
 30
0.0
  0
VERTEX
  5
3AE
330
3A7
100
AcDbEntity
  8
DRYERJACK 486AL
 62
     7
100
AcDbVertex
100
AcDb2dVertex
 10
74.93654823009335
 20
-22.43798759236712
 30
0.0
  0
VERTEX
  5
3AF
330
3A7
100
AcDbEntity
  8
DRYERJACK 486AL
 62
     7
100
AcDbVertex
100
AcDb2dVertex
 10
75.45465156995701
 20
-22.53697656732633
 30
0.0
  0
VERTEX
  5
3B0
330
3A7
100
AcDbEntity
  8
DRYERJACK 486AL
 62
     7
100
AcDbVertex
100
AcDb2dVertex
 10
75.95254310125635
 20
-22.7251877327595
 30
0.0
  0
VERTEX
  5
3B1
330
3A7
100
AcDbEntity
  8
DRYERJACK 486AL
 62
     7
100
AcDbVertex
100
AcDb2dVertex
 10
76.41154817828969
 20
-22.99556176628289
 30
0.0
  0
VERTEX
  5
3B2
330
3A7
100
AcDbEntity
  8
DRYERJACK 486AL
 62
     7
100
AcDbVertex
100
AcDb2dVertex
 10
76.81445068740572
 20
-23.33795762518826
 30
0.0
  0
VERTEX
  5
3B3
330
3A7
100
AcDbEntity
  8
DRYERJACK 486AL
 62
     7
100
AcDbVertex
100
AcDb2dVertex
 10
77.14613877966333
 20
-23.73953291117633
 30
0.0
  0
SEQEND
  5
3B4
330
3A7
100
AcDbEntity
  8
DRYERJACK 486AL
 62
     7
  0
LINE
  5
3B5
330
368
100
AcDbEntity
  8
DRYERJACK 486AL
 62
     7
100
AcDbLine
 10
77.14613877966333
 20
-23.73953291117633
 30
0.0
 11
77.04103604006843
 21
-23.87253787883562
 31
0.0
  0
LINE
  5
3B6
330
368
100
AcDbEntity
  8
DRYERJACK 486AL
 62
     7
100
AcDbLine
 10
75.09450734219689
 20
-25.04920076443548
 30
0.0
 11
76.07534344963706
 21
-24.13536417103357
 31
0.0
  0
POLYLINE
  5
3B7
330
368
100
AcDbEntity
  8
DRYERJACK 486AL
 62
     7
100
AcDb2dPolyline
 66
     1
 10
0.0
 20
0.0
 30
0.0
  0
VERTEX
  5
3B8
330
3B7
100
AcDbEntity
  8
DRYERJACK 486AL
 62
     7
100
AcDbVertex
100
AcDb2dVertex
 10
77.04103604006843
 20
-23.87253787883562
 30
0.0
  0
VERTEX
  5
3B9
330
3B7
100
AcDbEntity
  8
DRYERJACK 486AL
 62
     7
100
AcDbVertex
100
AcDb2dVertex
 10
76.81703312438265
 20
-23.96575225960557
 30
0.0
  0
VERTEX
  5
3BA
330
3B7
100
AcDbEntity
  8
DRYERJACK 486AL
 62
     7
100
AcDbVertex
100
AcDb2dVertex
 10
76.5634881268681
 20
-23.97469473365785
 30
0.0
  0
SEQEND
  5
3BB
330
3B7
100
AcDbEntity
  8
DRYERJACK 486AL
 62
     7
  0
POLYLINE
  5
3BC
330
368
100
AcDbEntity
  8
DRYERJACK 486AL
 62
     7
100
AcDb2dPolyline
 66
     1
 10
0.0
 20
0.0
 30
0.0
  0
VERTEX
  5
3BD
330
3BC
100
AcDbEntity
  8
DRYERJACK 486AL
 62
     7
100
AcDbVertex
100
AcDb2dVertex
 10
76.07534344963706
 20
-24.13536417103357
 30
0.0
  0
VERTEX
  5
3BE
330
3BC
100
AcDbEntity
  8
DRYERJACK 486AL
 62
     7
100
AcDbVertex
100
AcDb2dVertex
 10
76.29869417448344
 20
-24.01147696491768
 30
0.0
  0
VERTEX
  5
3BF
330
3BC
100
AcDbEntity
  8
DRYERJACK 486AL
 62
     7
100
AcDbVertex
100
AcDb2dVertex
 10
76.5634881268681
 20
-23.97469473365786
 30
0.0
  0
SEQEND
  5
3C0
330
3BC
100
AcDbEntity
  8
DRYERJACK 486AL
 62
     7
  0
LINE
  5
3C1
330
368
100
AcDbEntity
  8
DRYERJACK 486AL
 62
     7
100
AcDbLine
 10
75.09161495694872
 20
-25.04569277165964
 30
0.0
 11
75.33543240131111
 21
-24.6899526703517
 31
0.0
  0
LINE
  5
3C2
330
368
100
AcDbEntity
  8
DRYERJACK 486AL
 62
     7
100
AcDbLine
 10
75.33784663278223
 20
-24.68512420740947
 30
0.0
 11
75.30380947865002
 21
-24.84917299067716
 31
0.0
  0
LINE
  5
3C3
330
368
100
AcDbEntity
  8
DRYERJACK 486AL
 62
     7
100
AcDbLine
 10
71.14115288053746
 20
-23.11274861536354
 30
0.0
 11
76.46709669637985
 21
-25.77572052328477
 31
0.0
  0
LINE
  5
3C4
330
368
100
AcDbEntity
  8
DRYERJACK 486AL
 62
     7
100
AcDbLine
 10
72.45382593208646
 20
-23.68478626298
 30
0.0
 11
72.43186682162568
 21
-23.72870448390159
 31
0.0
  0
ARC
  5
3C5
330
368
100
AcDbEntity
  8
DRYERJACK 486AL
 62
     7
100
AcDbCircle
 10
73.38410393150612
 20
-24.66019869356578
 30
0.0
 40
1.947561123213044
100
AcDbArc
 50
356.0083103131961
 51
88.28131161783075
  0
ENDBLK
  5
3C7
330
368
100
AcDbEntity
  8
0
100
AcDbBlockEnd
  0
BLOCK
  5
3A4
330
38E
100
AcDbEntity
  8
0
100
AcDbBlockBegin
  2
PD_4190
 70
     0
 10
0.0
 20
0.0
 30
0.0
  3
PD_4190
  1

  0
POLYLINE
  5
38F
330
38E
100
AcDbEntity
  8
DRYERJACK 486AL
 62
     7
100
AcDb2dPolyline
 66
     1
 10
0.0
 20
0.0
 30
0.0
  0
VERTEX
  5
390
330
38F
100
AcDbEntity
  8
DRYERJACK 486AL
 62
     7
100
AcDbVertex
100
AcDb2dVertex
 10
74.5277018425452
 20
-24.82835806137493
 30
0.0
  0
VERTEX
  5
391
330
38F
100
AcDbEntity
  8
DRYERJACK 486AL
 62
     7
100
AcDbVertex
100
AcDb2dVertex
 10
74.04756835737648
 20
-25.78862503171234
 30
0.0
  0
VERTEX
  5
392
330
38F
100
AcDbEntity
  8
DRYERJACK 486AL
 62
     7
100
AcDbVertex
100
AcDb2dVertex
 10
72.25871397537665
 20
-24.89419784071242
 30
0.0
  0
VERTEX
  5
393
330
38F
100
AcDbEntity
  8
DRYERJACK 486AL
 62
     7
100
AcDbVertex
100
AcDb2dVertex
 10
72.73884746054537
 20
-23.93393087037501
 30
0.0
  0
VERTEX
  5
394
330
38F
100
AcDbEntity
  8
DRYERJACK 486AL
 62
     7
100
AcDbVertex
100
AcDb2dVertex
 10
74.5277018425452
 20
-24.82835806137493
 30
0.0
  0
SEQEND
  5
395
330
38F
100
AcDbEntity
  8
DRYERJACK 486AL
 62
     7
  0
POLYLINE
  5
396
330
38E
100
AcDbEntity
  8
DRYERJACK 486AL
 62
     7
100
AcDb2dPolyline
 66
     1
 10
0.0
 20
0.0
 30
0.0
  0
VERTEX
  5
397
330
396
100
AcDbEntity
  8
DRYERJACK 486AL
 62
     7
100
AcDbVertex
100
AcDb2dVertex
 10
74.77863836002018
 20
-24.32648502642498
 30
0.0
  0
VERTEX
  5
398
330
396
100
AcDbEntity
  8
DRYERJACK 486AL
 62
     7
100
AcDbVertex
100
AcDb2dVertex
 10
74.56000060222019
 20
-24.76376054202493
 30
0.0
  0
VERTEX
  5
399
330
396
100
AcDbEntity
  8
DRYERJACK 486AL
 62
     7
100
AcDbVertex
100
AcDb2dVertex
 10
72.77114622022037
 20
-23.86933335102501
 30
0.0
  0
VERTEX
  5
39A
330
396
100
AcDbEntity
  8
DRYERJACK 486AL
 62
     7
100
AcDbVertex
100
AcDb2dVertex
 10
72.98978397802034
 20
-23.43205783542506
 30
0.0
  0
VERTEX
  5
39B
330
396
100
AcDbEntity
  8
DRYERJACK 486AL
 62
     7
100
AcDbVertex
100
AcDb2dVertex
 10
74.77863836002018
 20
-24.32648502642498
 30
0.0
  0
SEQEND
  5
39C
330
396
100
AcDbEntity
  8
DRYERJACK 486AL
 62
     7
  0
LINE
  5
39D
330
38E
100
AcDbEntity
  8
DRYERJACK 486AL
 62
     7
100
AcDbLine
 10
72.99043559959765
 20
-23.43075459227046
 30
0.0
 11
72.25681399560025
 21
-24.89799780026521
 31
0.0
  0
LINE
  5
39E
330
38E
100
AcDbEntity
  8
DRYERJACK 486AL
 62
     7
100
AcDbLine
 10
74.77928998159747
 20
-24.32518178327038
 30
0.0
 11
74.04566837760008
 21
-25.79242499126513
 31
0.0
  0
LINE
  5
39F
330
38E
100
AcDbEntity
  8
DRYERJACK 486AL
 62
     7
100
AcDbLine
 10
72.99043559959765
 20
-23.43075459227046
 30
0.0
 11
73.30767551458447
 21
-23.58937454976388
 31
0.0
  0
LINE
  5
3A0
330
38E
100
AcDbEntity
  8
DRYERJACK 486AL
 62
     7
100
AcDbLine
 10
73.30767551458447
 20
-23.58937454976388
 30
0.0
 11
74.77928998159747
 21
-24.32518178327038
 31
0.0
  0
LINE
  5
3A1
330
38E
100
AcDbEntity
  8
DRYERJACK 486AL
 62
     7
100
AcDbLine
 10
72.76871971098848
 20
-23.87418636948878
 30
0.0
 11
74.55757409298832
 21
-24.7686135604887
 31
0.0
  0
LINE
  5
3A2
330
38E
100
AcDbEntity
  8
DRYERJACK 486AL
 62
     7
100
AcDbLine
 10
72.7396001937325
 20
-23.93242540400074
 30
0.0
 11
74.52845457573233
 21
-24.82685259500066
 31
0.0
  0
LINE
  5
3A3
330
38E
100
AcDbEntity
  8
DRYERJACK 486AL
 62
     7
100
AcDbLine
 10
72.25681399560025
 20
-24.89799780026521
 30
0.0
 11
74.04566837760008
 21
-25.79242499126513
 31
0.0
  0
ENDBLK
  5
3A5
330
38E
100
AcDbEntity
  8
0
100
AcDbBlockEnd
  0
BLOCK
  5
427
330
3C9
100
AcDbEntity
  8
0
100
AcDbBlockBegin
  2
PD_4191
 70
     0
 10
0.0
 20
0.0
 30
0.0
  3
PD_4191
  1

  0
POLYLINE
  5
3CA
330
3C9
100
AcDbEntity
  8
DRYERJACK 486AL
 62
   253
420
 11184810
100
AcDb2dPolyline
 66
     1
 10
0.0
 20
0.0
 30
0.0
  0
VERTEX
  5
3CB
330
3CA
100
AcDbEntity
  8
DRYERJACK 486AL
 62
   253
420
 11184810
100
AcDbVertex
100
AcDb2dVertex
 10
56.24397150765058
 20
-23.92823990471395
 30
0.0
  0
VERTEX
  5
3CC
330
3CA
100
AcDbEntity
  8
DRYERJACK 486AL
 62
   253
420
 11184810
100
AcDbVertex
100
AcDb2dVertex
 10
56.51244076032312
 20
-23.44058316394251
 30
0.0
  0
VERTEX
  5
3CD
330
3CA
100
AcDbEntity
  8
DRYERJACK 486AL
 62
   253
420
 11184810
100
AcDbVertex
100
AcDb2dVertex
 10
56.89269882461512
 20
-23.03846498755565
 30
0.0
  0
VERTEX
  5
3CE
330
3CA
100
AcDbEntity
  8
DRYERJACK 486AL
 62
   253
420
 11184810
100
AcDbVertex
100
AcDb2dVertex
 10
57.25097874025371
 20
-22.79460935405969
 30
0.0
  0
VERTEX
  5
3CF
330
3CA
100
AcDbEntity
  8
DRYERJACK 486AL
 62
   253
420
 11184810
100
AcDbVertex
100
AcDb2dVertex
 10
57.9376000251288
 20
-22.53493715082458
 30
0.0
  0
VERTEX
  5
3D0
330
3CA
100
AcDbEntity
  8
DRYERJACK 486AL
 62
   253
420
 11184810
100
AcDbVertex
100
AcDb2dVertex
 10
58.62326987506214
 20
-22.46742923208933
 30
0.0
  0
VERTEX
  5
3D1
330
3CA
100
AcDbEntity
  8
DRYERJACK 486AL
 62
   253
420
 11184810
100
AcDbVertex
100
AcDb2dVertex
 10
59.18664216284475
 20
-22.53327174914631
 30
0.0
  0
VERTEX
  5
3D2
330
3CA
100
AcDbEntity
  8
DRYERJACK 486AL
 62
   253
420
 11184810
100
AcDbVertex
100
AcDb2dVertex
 10
59.6799800880995
 20
-22.68199024566298
 30
0.0
  0
VERTEX
  5
3D3
330
3CA
100
AcDbEntity
  8
DRYERJACK 486AL
 62
   253
420
 11184810
100
AcDbVertex
100
AcDb2dVertex
 10
60.13029281761219
 20
-22.90282002753903
 30
0.0
  0
VERTEX
  5
3D4
330
3CA
100
AcDbEntity
  8
DRYERJACK 486AL
 62
   253
420
 11184810
100
AcDbVertex
100
AcDb2dVertex
 10
60.55066138267431
 20
-23.20339593753732
 30
0.0
  0
VERTEX
  5
3D5
330
3CA
100
AcDbEntity
  8
DRYERJACK 486AL
 62
   253
420
 11184810
100
AcDbVertex
100
AcDb2dVertex
 10
60.94637222369651
 20
-23.61680352506893
 30
0.0
  0
VERTEX
  5
3D6
330
3CA
100
AcDbEntity
  8
DRYERJACK 486AL
 62
   253
420
 11184810
100
AcDbVertex
100
AcDb2dVertex
 10
60.86164922372532
 20
-23.74067190445597
 30
0.0
  0
VERTEX
  5
3D7
330
3CA
100
AcDbEntity
  8
DRYERJACK 486AL
 62
   253
420
 11184810
100
AcDbVertex
100
AcDb2dVertex
 10
60.77934892398716
 20
-23.80276764097182
 30
0.0
  0
VERTEX
  5
3D8
330
3CA
100
AcDbEntity
  8
DRYERJACK 486AL
 62
   253
420
 11184810
100
AcDbVertex
100
AcDb2dVertex
 10
60.65703272592494
 20
-23.85631107851825
 30
0.0
  0
VERTEX
  5
3D9
330
3CA
100
AcDbEntity
  8
DRYERJACK 486AL
 62
   253
420
 11184810
100
AcDbVertex
100
AcDb2dVertex
 10
60.50668568728742
 20
-23.88740573023031
 30
0.0
  0
VERTEX
  5
3DA
330
3CA
100
AcDbEntity
  8
DRYERJACK 486AL
 62
   253
420
 11184810
100
AcDbVertex
100
AcDb2dVertex
 10
60.328736253787
 20
-23.89306784183612
 30
0.0
  0
VERTEX
  5
3DB
330
3CA
100
AcDbEntity
  8
DRYERJACK 486AL
 62
   253
420
 11184810
100
AcDbVertex
100
AcDb2dVertex
 10
60.19555535326219
 20
-23.91859379572421
 30
0.0
  0
VERTEX
  5
3DC
330
3CA
100
AcDbEntity
  8
DRYERJACK 486AL
 62
   253
420
 11184810
100
AcDbVertex
100
AcDb2dVertex
 10
60.05196831046136
 20
-23.97693616257374
 30
0.0
  0
VERTEX
  5
3DD
330
3CA
100
AcDbEntity
  8
DRYERJACK 486AL
 62
   253
420
 11184810
100
AcDbVertex
100
AcDb2dVertex
 10
59.90383275597316
 20
-24.086423074331
 30
0.0
  0
VERTEX
  5
3DE
330
3CA
100
AcDbEntity
  8
DRYERJACK 486AL
 62
   253
420
 11184810
100
AcDbVertex
100
AcDb2dVertex
 10
58.96772654685444
 20
-25.09162641155178
 30
0.0
  0
VERTEX
  5
3DF
330
3CA
100
AcDbEntity
  8
DRYERJACK 486AL
 62
   253
420
 11184810
100
AcDbVertex
100
AcDb2dVertex
 10
56.25357482592027
 20
-23.96072986116254
 30
0.0
  0
SEQEND
  5
3E0
330
3CA
100
AcDbEntity
  8
DRYERJACK 486AL
 62
   253
420
 11184810
  0
POLYLINE
  5
3E1
330
3C9
100
AcDbEntity
  8
DRYERJACK 486AL
 62
   253
420
 11184810
100
AcDb2dPolyline
 66
     1
 10
0.0
 20
0.0
 30
0.0
  0
VERTEX
  5
3E2
330
3E1
100
AcDbEntity
  8
DRYERJACK 486AL
 62
   253
420
 11184810
100
AcDbVertex
100
AcDb2dVertex
 10
58.62551473610345
 20
-24.3650509943681
 30
0.0
  0
VERTEX
  5
3E3
330
3E1
100
AcDbEntity
  8
DRYERJACK 486AL
 62
   253
420
 11184810
100
AcDbVertex
100
AcDb2dVertex
 10
58.43961730020602
 20
-24.81120484052194
 30
0.0
  0
VERTEX
  5
3E4
330
3E1
100
AcDbEntity
  8
DRYERJACK 486AL
 62
   253
420
 11184810
100
AcDbVertex
100
AcDb2dVertex
 10
56.59346345405218
 20
-24.04197407129117
 30
0.0
  0
VERTEX
  5
3E5
330
3E1
100
AcDbEntity
  8
DRYERJACK 486AL
 62
   253
420
 11184810
100
AcDbVertex
100
AcDb2dVertex
 10
56.77936088994961
 20
-23.59582022513732
 30
0.0
  0
VERTEX
  5
3E6
330
3E1
100
AcDbEntity
  8
DRYERJACK 486AL
 62
   253
420
 11184810
100
AcDbVertex
100
AcDb2dVertex
 10
58.62551473610345
 20
-24.3650509943681
 30
0.0
  0
SEQEND
  5
3E7
330
3E1
100
AcDbEntity
  8
DRYERJACK 486AL
 62
   253
420
 11184810
  0
POLYLINE
  5
3E8
330
3C9
100
AcDbEntity
  8
DRYERJACK 486AL
 62
   253
420
 11184810
100
AcDb2dPolyline
 66
     1
 10
0.0
 20
0.0
 30
0.0
  0
VERTEX
  5
3E9
330
3E8
100
AcDbEntity
  8
DRYERJACK 486AL
 62
   253
420
 11184810
100
AcDbVertex
100
AcDb2dVertex
 10
58.40970277029149
 20
-24.88299971231682
 30
0.0
  0
VERTEX
  5
3EA
330
3E8
100
AcDbEntity
  8
DRYERJACK 486AL
 62
   253
420
 11184810
100
AcDbVertex
100
AcDb2dVertex
 10
57.99944636003508
 20
-25.8676150969322
 30
0.0
  0
VERTEX
  5
3EB
330
3E8
100
AcDbEntity
  8
DRYERJACK 486AL
 62
   253
420
 11184810
100
AcDbVertex
100
AcDb2dVertex
 10
56.15329251388123
 20
-25.09838432770143
 30
0.0
  0
VERTEX
  5
3EC
330
3E8
100
AcDbEntity
  8
DRYERJACK 486AL
 62
   253
420
 11184810
100
AcDbVertex
100
AcDb2dVertex
 10
56.56354892413765
 20
-24.11376894308605
 30
0.0
  0
VERTEX
  5
3ED
330
3E8
100
AcDbEntity
  8
DRYERJACK 486AL
 62
   253
420
 11184810
100
AcDbVertex
100
AcDb2dVertex
 10
58.40970277029149
 20
-24.88299971231682
 30
0.0
  0
SEQEND
  5
3EE
330
3E8
100
AcDbEntity
  8
DRYERJACK 486AL
 62
   253
420
 11184810
  0
INSERT
  5
407
330
3C9
100
AcDbEntity
  8
DRYERJACK 486AL
100
AcDbBlockReference
  2
PD_4192
 10
0.0
 20
0.0
 30
0.0
  0
POLYLINE
  5
408
330
3C9
100
AcDbEntity
  8
DRYERJACK 486AL
 62
     7
100
AcDb2dPolyline
 66
     1
 10
0.0
 20
0.0
 30
0.0
  0
VERTEX
  5
409
330
408
100
AcDbEntity
  8
DRYERJACK 486AL
 62
     7
100
AcDbVertex
100
AcDb2dVertex
 10
56.26285691677204
 20
-23.88291492282249
 30
0.0
  0
VERTEX
  5
40A
330
408
100
AcDbEntity
  8
DRYERJACK 486AL
 62
     7
100
AcDbVertex
100
AcDb2dVertex
 10
56.49017237441313
 20
-23.47157108873636
 30
0.0
  0
VERTEX
  5
40B
330
408
100
AcDbEntity
  8
DRYERJACK 486AL
 62
     7
100
AcDbVertex
100
AcDb2dVertex
 10
56.80426116630523
 20
-23.11536378258009
 30
0.0
  0
VERTEX
  5
40C
330
408
100
AcDbEntity
  8
DRYERJACK 486AL
 62
     7
100
AcDbVertex
100
AcDb2dVertex
 10
57.19334262027633
 20
-22.8276534349307
 30
0.0
  0
VERTEX
  5
40D
330
408
100
AcDbEntity
  8
DRYERJACK 486AL
 62
     7
100
AcDbVertex
100
AcDb2dVertex
 10
57.64282328003074
 20
-22.6192313295705
 30
0.0
  0
VERTEX
  5
40E
330
408
100
AcDbEntity
  8
DRYERJACK 486AL
 62
     7
100
AcDbVertex
100
AcDb2dVertex
 10
58.13584426859828
 20
-22.4979148498638
 30
0.0
  0
VERTEX
  5
40F
330
408
100
AcDbEntity
  8
DRYERJACK 486AL
 62
     7
100
AcDbVertex
100
AcDb2dVertex
 10
58.65391362195426
 20
-22.46825426857859
 30
0.0
  0
VERTEX
  5
410
330
408
100
AcDbEntity
  8
DRYERJACK 486AL
 62
     7
100
AcDbVertex
100
AcDb2dVertex
 10
59.17759987558355
 20
-22.53136207872188
 30
0.0
  0
VERTEX
  5
411
330
408
100
AcDbEntity
  8
DRYERJACK 486AL
 62
     7
100
AcDbVertex
100
AcDb2dVertex
 10
59.6872608893199
 20
-22.68487126675486
 30
0.0
  0
VERTEX
  5
412
330
408
100
AcDbEntity
  8
DRYERJACK 486AL
 62
     7
100
AcDbVertex
100
AcDb2dVertex
 10
60.16378057409339
 20
-22.92302409325388
 30
0.0
  0
VERTEX
  5
413
330
408
100
AcDbEntity
  8
DRYERJACK 486AL
 62
     7
100
AcDbVertex
100
AcDb2dVertex
 10
60.58928588783839
 20
-23.23688805108004
 30
0.0
  0
VERTEX
  5
414
330
408
100
AcDbEntity
  8
DRYERJACK 486AL
 62
     7
100
AcDbVertex
100
AcDb2dVertex
 10
60.94781720786835
 20
-23.61469090101563
 30
0.0
  0
SEQEND
  5
415
330
408
100
AcDbEntity
  8
DRYERJACK 486AL
 62
     7
  0
LINE
  5
416
330
3C9
100
AcDbEntity
  8
DRYERJACK 486AL
 62
     7
100
AcDbLine
 10
60.94781720786836
 20
-23.61469090101563
 30
0.0
 11
60.85211454721835
 21
-23.75461197890209
 31
0.0
  0
LINE
  5
417
330
3C9
100
AcDbEntity
  8
DRYERJACK 486AL
 62
     7
100
AcDbLine
 10
58.99115535073146
 20
-25.06241180570915
 30
0.0
 11
59.90679332970539
 21
-24.08325712918489
 31
0.0
  0
POLYLINE
  5
418
330
3C9
100
AcDbEntity
  8
DRYERJACK 486AL
 62
     7
100
AcDb2dPolyline
 66
     1
 10
0.0
 20
0.0
 30
0.0
  0
VERTEX
  5
419
330
418
100
AcDbEntity
  8
DRYERJACK 486AL
 62
     7
100
AcDbVertex
100
AcDb2dVertex
 10
60.85211454721836
 20
-23.7546119789021
 30
0.0
  0
VERTEX
  5
41A
330
418
100
AcDbEntity
  8
DRYERJACK 486AL
 62
     7
100
AcDbVertex
100
AcDb2dVertex
 10
60.63505578924065
 20
-23.8630173413305
 30
0.0
  0
VERTEX
  5
41B
330
418
100
AcDbEntity
  8
DRYERJACK 486AL
 62
     7
100
AcDbVertex
100
AcDb2dVertex
 10
60.38272687101922
 20
-23.8893830508038
 30
0.0
  0
SEQEND
  5
41C
330
418
100
AcDbEntity
  8
DRYERJACK 486AL
 62
     7
  0
POLYLINE
  5
41D
330
3C9
100
AcDbEntity
  8
DRYERJACK 486AL
 62
     7
100
AcDb2dPolyline
 66
     1
 10
0.0
 20
0.0
 30
0.0
  0
VERTEX
  5
41E
330
41D
100
AcDbEntity
  8
DRYERJACK 486AL
 62
     7
100
AcDbVertex
100
AcDb2dVertex
 10
59.90679332970539
 20
-24.08325712918489
 30
0.0
  0
VERTEX
  5
41F
330
41D
100
AcDbEntity
  8
DRYERJACK 486AL
 62
     7
100
AcDbVertex
100
AcDb2dVertex
 10
60.12109108778225
 20
-23.94429649802684
 30
0.0
  0
VERTEX
  5
420
330
41D
100
AcDbEntity
  8
DRYERJACK 486AL
 62
     7
100
AcDbVertex
100
AcDb2dVertex
 10
60.38272687101921
 20
-23.8893830508038
 30
0.0
  0
SEQEND
  5
421
330
41D
100
AcDbEntity
  8
DRYERJACK 486AL
 62
     7
  0
LINE
  5
422
330
3C9
100
AcDbEntity
  8
DRYERJACK 486AL
 62
     7
100
AcDbLine
 10
58.98802846224604
 20
-25.05911112787891
 30
0.0
 11
59.2067924762991
 21
-24.6874388636334
 31
0.0
  0
LINE
  5
423
330
3C9
100
AcDbEntity
  8
DRYERJACK 486AL
 62
     7
100
AcDbLine
 10
59.20886877848481
 20
-24.6824557383877
 30
0.0
 11
59.18619918064508
 21
-24.84845760731338
 31
0.0
  0
LINE
  5
424
330
3C9
100
AcDbEntity
  8
DRYERJACK 486AL
 62
     7
100
AcDbLine
 10
54.91393708260445
 20
-23.40254746811428
 30
0.0
 11
60.41047819794364
 21
-25.69277293283895
 31
0.0
  0
LINE
  5
425
330
3C9
100
AcDbEntity
  8
DRYERJACK 486AL
 62
     7
100
AcDbLine
 10
56.26285691677204
 20
-23.88291492282249
 30
0.0
 11
56.24397150765058
 21
-23.92823990471395
 31
0.0
  0
ARC
  5
426
330
3C9
100
AcDbEntity
  8
DRYERJACK 486AL
 62
     7
100
AcDbCircle
 10
57.2580408782697
 20
-24.79201087415179
 30
0.0
 40
1.947561123213044
100
AcDbArc
 50
359.9534965422338
 51
92.22649784686847
  0
ENDBLK
  5
428
330
3C9
100
AcDbEntity
  8
0
100
AcDbBlockEnd
  0
BLOCK
  5
405
330
3EF
100
AcDbEntity
  8
0
100
AcDbBlockBegin
  2
PD_4192
 70
     0
 10
0.0
 20
0.0
 30
0.0
  3
PD_4192
  1

  0
POLYLINE
  5
3F0
330
3EF
100
AcDbEntity
  8
DRYERJACK 486AL
 62
     7
100
AcDb2dPolyline
 66
     1
 10
0.0
 20
0.0
 30
0.0
  0
VERTEX
  5
3F1
330
3F0
100
AcDbEntity
  8
DRYERJACK 486AL
 62
     7
100
AcDbVertex
100
AcDb2dVertex
 10
58.41049855407343
 20
-24.88108983124017
 30
0.0
  0
VERTEX
  5
3F2
330
3F0
100
AcDbEntity
  8
DRYERJACK 486AL
 62
     7
100
AcDbVertex
100
AcDb2dVertex
 10
57.99757120364607
 20
-25.87211547226581
 30
0.0
  0
VERTEX
  5
3F3
330
3F0
100
AcDbEntity
  8
DRYERJACK 486AL
 62
     7
100
AcDbVertex
100
AcDb2dVertex
 10
56.15141735749223
 20
-25.10288470303503
 30
0.0
  0
VERTEX
  5
3F4
330
3F0
100
AcDbEntity
  8
DRYERJACK 486AL
 62
     7
100
AcDbVertex
100
AcDb2dVertex
 10
56.56434470791957
 20
-24.11185906200939
 30
0.0
  0
VERTEX
  5
3F5
330
3F0
100
AcDbEntity
  8
DRYERJACK 486AL
 62
     7
100
AcDbVertex
100
AcDb2dVertex
 10
58.41049855407343
 20
-24.88108983124017
 30
0.0
  0
SEQEND
  5
3F6
330
3F0
100
AcDbEntity
  8
DRYERJACK 486AL
 62
     7
  0
POLYLINE
  5
3F7
330
3EF
100
AcDbEntity
  8
DRYERJACK 486AL
 62
     7
100
AcDb2dPolyline
 66
     1
 10
0.0
 20
0.0
 30
0.0
  0
VERTEX
  5
3F8
330
3F7
100
AcDbEntity
  8
DRYERJACK 486AL
 62
     7
100
AcDbVertex
100
AcDb2dVertex
 10
58.62631051988539
 20
-24.36314111329145
 30
0.0
  0
VERTEX
  5
3F9
330
3F7
100
AcDbEntity
  8
DRYERJACK 486AL
 62
     7
100
AcDbVertex
100
AcDb2dVertex
 10
58.43827633185121
 20
-24.81442316457349
 30
0.0
  0
VERTEX
  5
3FA
330
3F7
100
AcDbEntity
  8
DRYERJACK 486AL
 62
     7
100
AcDbVertex
100
AcDb2dVertex
 10
56.59212248569736
 20
-24.04519239534272
 30
0.0
  0
VERTEX
  5
3FB
330
3F7
100
AcDbEntity
  8
DRYERJACK 486AL
 62
     7
100
AcDbVertex
100
AcDb2dVertex
 10
56.78015667373155
 20
-23.59391034406068
 30
0.0
  0
VERTEX
  5
3FC
330
3F7
100
AcDbEntity
  8
DRYERJACK 486AL
 62
     7
100
AcDbVertex
100
AcDb2dVertex
 10
58.62631051988539
 20
-24.36314111329145
 30
0.0
  0
SEQEND
  5
3FD
330
3F7
100
AcDbEntity
  8
DRYERJACK 486AL
 62
     7
  0
LINE
  5
3FE
330
3EF
100
AcDbEntity
  8
DRYERJACK 486AL
 62
     7
100
AcDbLine
 10
56.7807170853248
 20
-23.59256535623688
 30
0.0
 11
56.14978332520919
 21
-25.10680638051432
 31
0.0
  0
LINE
  5
3FF
330
3EF
100
AcDbEntity
  8
DRYERJACK 486AL
 62
     7
100
AcDbLine
 10
58.62687093147864
 20
-24.36179612546765
 30
0.0
 11
57.99593717136304
 21
-25.87603714974509
 31
0.0
  0
LINE
  5
400
330
3EF
100
AcDbEntity
  8
DRYERJACK 486AL
 62
     7
100
AcDbLine
 10
56.7807170853248
 20
-23.59256535623688
 30
0.0
 11
57.10811863074949
 21
-23.7289826668305
 31
0.0
  0
LINE
  5
401
330
3EF
100
AcDbEntity
  8
DRYERJACK 486AL
 62
     7
100
AcDbLine
 10
57.10811863074949
 20
-23.7289826668305
 30
0.0
 11
58.62687093147864
 21
-24.36179612546765
 31
0.0
  0
LINE
  5
402
330
3EF
100
AcDbEntity
  8
DRYERJACK 486AL
 62
     7
100
AcDbLine
 10
56.59003562431639
 20
-24.05020086265705
 30
0.0
 11
58.43618947047023
 21
-24.81943163188782
 31
0.0
  0
LINE
  5
403
330
3EF
100
AcDbEntity
  8
DRYERJACK 486AL
 62
     7
100
AcDbLine
 10
56.56499207814088
 20
-24.1103053734783
 30
0.0
 11
58.41114592429471
 21
-24.87953614270907
 31
0.0
  0
LINE
  5
404
330
3EF
100
AcDbEntity
  8
DRYERJACK 486AL
 62
     7
100
AcDbLine
 10
56.14978332520919
 20
-25.10680638051432
 30
0.0
 11
57.99593717136304
 21
-25.87603714974509
 31
0.0
  0
ENDBLK
  5
406
330
3EF
100
AcDbEntity
  8
0
100
AcDbBlockEnd
  0
BLOCK
  5
488
330
42A
100
AcDbEntity
  8
0
100
AcDbBlockBegin
  2
PD_4193
 70
     0
 10
0.0
 20
0.0
 30
0.0
  3
PD_4193
  1

  0
POLYLINE
  5
42B
330
42A
100
AcDbEntity
  8
DRYERJACK 486AL
 62
   253
420
 11184810
100
AcDb2dPolyline
 66
     1
 10
0.0
 20
0.0
 30
0.0
  0
VERTEX
  5
42C
330
42B
100
AcDbEntity
  8
DRYERJACK 486AL
 62
   253
420
 11184810
100
AcDbVertex
100
AcDb2dVertex
 10
36.90080323708288
 20
-24.10502460509751
 30
0.0
  0
VERTEX
  5
42D
330
42B
100
AcDbEntity
  8
DRYERJACK 486AL
 62
   253
420
 11184810
100
AcDbVertex
100
AcDb2dVertex
 10
37.13296961458588
 20
-23.5990763769086
 30
0.0
  0
VERTEX
  5
42E
330
42B
100
AcDbEntity
  8
DRYERJACK 486AL
 62
   253
420
 11184810
100
AcDbVertex
100
AcDb2dVertex
 10
37.48286897517343
 20
-23.170280783764
 30
0.0
  0
VERTEX
  5
42F
330
42B
100
AcDbEntity
  8
DRYERJACK 486AL
 62
   253
420
 11184810
100
AcDbVertex
100
AcDb2dVertex
 10
37.8223980970151
 20
-22.90092963125275
 30
0.0
  0
VERTEX
  5
430
330
42B
100
AcDbEntity
  8
DRYERJACK 486AL
 62
   253
420
 11184810
100
AcDbVertex
100
AcDb2dVertex
 10
38.48823891497393
 20
-22.59184315934498
 30
0.0
  0
VERTEX
  5
431
330
42B
100
AcDbEntity
  8
DRYERJACK 486AL
 62
   253
420
 11184810
100
AcDbVertex
100
AcDb2dVertex
 10
39.16715414610162
 20
-22.47447804041095
 30
0.0
  0
VERTEX
  5
432
330
42B
100
AcDbEntity
  8
DRYERJACK 486AL
 62
   253
420
 11184810
100
AcDbVertex
100
AcDb2dVertex
 10
39.73382922735443
 20
-22.49903255081003
 30
0.0
  0
VERTEX
  5
433
330
42B
100
AcDbEntity
  8
DRYERJACK 486AL
 62
   253
420
 11184810
100
AcDbVertex
100
AcDb2dVertex
 10
40.23670460454974
 20
-22.61135287270917
 30
0.0
  0
VERTEX
  5
434
330
42B
100
AcDbEntity
  8
DRYERJACK 486AL
 62
   253
420
 11184810
100
AcDbVertex
100
AcDb2dVertex
 10
40.70193187014591
 20
-22.7987320024715
 30
0.0
  0
VERTEX
  5
435
330
42B
100
AcDbEntity
  8
DRYERJACK 486AL
 62
   253
420
 11184810
100
AcDbVertex
100
AcDb2dVertex
 10
41.14311433531337
 20
-23.0678298296505
 30
0.0
  0
VERTEX
  5
436
330
42B
100
AcDbEntity
  8
DRYERJACK 486AL
 62
   253
420
 11184810
100
AcDbVertex
100
AcDb2dVertex
 10
41.56793878443857
 20
-23.451257907074
 30
0.0
  0
VERTEX
  5
437
330
42B
100
AcDbEntity
  8
DRYERJACK 486AL
 62
   253
420
 11184810
100
AcDbVertex
100
AcDb2dVertex
 10
41.49248105345583
 20
-23.5809787341259
 30
0.0
  0
VERTEX
  5
438
330
42B
100
AcDbEntity
  8
DRYERJACK 486AL
 62
   253
420
 11184810
100
AcDbVertex
100
AcDb2dVertex
 10
41.41493166507395
 20
-23.64891482315103
 30
0.0
  0
VERTEX
  5
439
330
42B
100
AcDbEntity
  8
DRYERJACK 486AL
 62
   253
420
 11184810
100
AcDbVertex
100
AcDb2dVertex
 10
41.29684896233734
 20
-23.71124160172254
 30
0.0
  0
VERTEX
  5
43A
330
42B
100
AcDbEntity
  8
DRYERJACK 486AL
 62
   253
420
 11184810
100
AcDbVertex
100
AcDb2dVertex
 10
41.14917194251878
 20
-23.75322501761114
 30
0.0
  0
VERTEX
  5
43B
330
42B
100
AcDbEntity
  8
DRYERJACK 486AL
 62
   253
420
 11184810
100
AcDbVertex
100
AcDb2dVertex
 10
40.97211016760343
 20
-23.77185800595923
 30
0.0
  0
VERTEX
  5
43C
330
42B
100
AcDbEntity
  8
DRYERJACK 486AL
 62
   253
420
 11184810
100
AcDbVertex
100
AcDb2dVertex
 10
40.84114713695023
 20
-23.80703486182538
 30
0.0
  0
VERTEX
  5
43D
330
42B
100
AcDbEntity
  8
DRYERJACK 486AL
 62
   253
420
 11184810
100
AcDbVertex
100
AcDb2dVertex
 10
40.70220050835564
 20
-23.87570002790023
 30
0.0
  0
VERTEX
  5
43E
330
42B
100
AcDbEntity
  8
DRYERJACK 486AL
 62
   253
420
 11184810
100
AcDbVertex
100
AcDb2dVertex
 10
40.56244980147385
 20
-23.99570530393305
 30
0.0
  0
VERTEX
  5
43F
330
42B
100
AcDbEntity
  8
DRYERJACK 486AL
 62
   253
420
 11184810
100
AcDbVertex
100
AcDb2dVertex
 10
39.7021948654229
 20
-25.06654143934799
 30
0.0
  0
VERTEX
  5
440
330
42B
100
AcDbEntity
  8
DRYERJACK 486AL
 62
   253
420
 11184810
100
AcDbVertex
100
AcDb2dVertex
 10
36.91275192556216
 20
-24.13672712606107
 30
0.0
  0
SEQEND
  5
441
330
42B
100
AcDbEntity
  8
DRYERJACK 486AL
 62
   253
420
 11184810
  0
POLYLINE
  5
442
330
42A
100
AcDbEntity
  8
DRYERJACK 486AL
 62
   253
420
 11184810
100
AcDb2dPolyline
 66
     1
 10
0.0
 20
0.0
 30
0.0
  0
VERTEX
  5
443
330
442
100
AcDbEntity
  8
DRYERJACK 486AL
 62
   253
420
 11184810
100
AcDbVertex
100
AcDb2dVertex
 10
39.30787318109915
 20
-24.3668763983854
 30
0.0
  0
VERTEX
  5
444
330
442
100
AcDbEntity
  8
DRYERJACK 486AL
 62
   253
420
 11184810
100
AcDbVertex
100
AcDb2dVertex
 10
39.15502976085767
 20
-24.82540665910982
 30
0.0
  0
VERTEX
  5
445
330
442
100
AcDbEntity
  8
DRYERJACK 486AL
 62
   253
420
 11184810
100
AcDbVertex
100
AcDb2dVertex
 10
37.25766316475665
 20
-24.19295112707614
 30
0.0
  0
VERTEX
  5
446
330
442
100
AcDbEntity
  8
DRYERJACK 486AL
 62
   253
420
 11184810
100
AcDbVertex
100
AcDb2dVertex
 10
37.41050658499812
 20
-23.73442086635173
 30
0.0
  0
VERTEX
  5
447
330
442
100
AcDbEntity
  8
DRYERJACK 486AL
 62
   253
420
 11184810
100
AcDbVertex
100
AcDb2dVertex
 10
39.30787318109915
 20
-24.3668763983854
 30
0.0
  0
SEQEND
  5
448
330
442
100
AcDbEntity
  8
DRYERJACK 486AL
 62
   253
420
 11184810
  0
POLYLINE
  5
449
330
42A
100
AcDbEntity
  8
DRYERJACK 486AL
 62
   253
420
 11184810
100
AcDb2dPolyline
 66
     1
 10
0.0
 20
0.0
 30
0.0
  0
VERTEX
  5
44A
330
449
100
AcDbEntity
  8
DRYERJACK 486AL
 62
   253
420
 11184810
100
AcDbVertex
100
AcDb2dVertex
 10
39.13043426794525
 20
-24.89919313784708
 30
0.0
  0
VERTEX
  5
44B
330
449
100
AcDbEntity
  8
DRYERJACK 486AL
 62
   253
420
 11184810
100
AcDbVertex
100
AcDb2dVertex
 10
38.79312465086062
 20
-25.91112198910097
 30
0.0
  0
VERTEX
  5
44C
330
449
100
AcDbEntity
  8
DRYERJACK 486AL
 62
   253
420
 11184810
100
AcDbVertex
100
AcDb2dVertex
 10
36.8957580547596
 20
-25.27866645706729
 30
0.0
  0
VERTEX
  5
44D
330
449
100
AcDbEntity
  8
DRYERJACK 486AL
 62
   253
420
 11184810
100
AcDbVertex
100
AcDb2dVertex
 10
37.23306767184422
 20
-24.2667376058134
 30
0.0
  0
VERTEX
  5
44E
330
449
100
AcDbEntity
  8
DRYERJACK 486AL
 62
   253
420
 11184810
100
AcDbVertex
100
AcDb2dVertex
 10
39.13043426794525
 20
-24.89919313784708
 30
0.0
  0
SEQEND
  5
44F
330
449
100
AcDbEntity
  8
DRYERJACK 486AL
 62
   253
420
 11184810
  0
INSERT
  5
468
330
42A
100
AcDbEntity
  8
DRYERJACK 486AL
100
AcDbBlockReference
  2
PD_4194
 10
0.0
 20
0.0
 30
0.0
  0
POLYLINE
  5
469
330
42A
100
AcDbEntity
  8
DRYERJACK 486AL
 62
     7
100
AcDb2dPolyline
 66
     1
 10
0.0
 20
0.0
 30
0.0
  0
VERTEX
  5
46A
330
469
100
AcDbEntity
  8
DRYERJACK 486AL
 62
     7
100
AcDbVertex
100
AcDb2dVertex
 10
36.91633067299853
 20
-24.05844229735056
 30
0.0
  0
VERTEX
  5
46B
330
469
100
AcDbEntity
  8
DRYERJACK 486AL
 62
     7
100
AcDbVertex
100
AcDb2dVertex
 10
37.11302196593969
 20
-23.63160672900557
 30
0.0
  0
VERTEX
  5
46C
330
469
100
AcDbEntity
  8
DRYERJACK 486AL
 62
     7
100
AcDbVertex
100
AcDb2dVertex
 10
37.40027885475781
 20
-23.25342833991137
 30
0.0
  0
VERTEX
  5
46D
330
469
100
AcDbEntity
  8
DRYERJACK 486AL
 62
     7
100
AcDbVertex
100
AcDb2dVertex
 10
37.76732706375866
 20
-22.93809164011564
 30
0.0
  0
VERTEX
  5
46E
330
469
100
AcDbEntity
  8
DRYERJACK 486AL
 62
     7
100
AcDbVertex
100
AcDb2dVertex
 10
38.20039954765701
 20
-22.69742410764368
 30
0.0
  0
VERTEX
  5
46F
330
469
100
AcDbEntity
  8
DRYERJACK 486AL
 62
     7
100
AcDbVertex
100
AcDb2dVertex
 10
38.68325285844957
 20
-22.54045256986305
 30
0.0
  0
VERTEX
  5
470
330
469
100
AcDbEntity
  8
DRYERJACK 486AL
 62
     7
100
AcDbVertex
100
AcDb2dVertex
 10
39.19777639585878
 20
-22.47306463013517
 30
0.0
  0
VERTEX
  5
471
330
469
100
AcDbEntity
  8
DRYERJACK 486AL
 62
     7
100
AcDbVertex
100
AcDb2dVertex
 10
39.72467168991225
 20
-22.49778783877948
 30
0.0
  0
VERTEX
  5
472
330
469
100
AcDbEntity
  8
DRYERJACK 486AL
 62
     7
100
AcDbVertex
100
AcDb2dVertex
 10
40.24417623749478
 20
-22.613694891086
 30
0.0
  0
VERTEX
  5
473
330
469
100
AcDbEntity
  8
DRYERJACK 486AL
 62
     7
100
AcDbVertex
100
AcDb2dVertex
 10
40.73680474360407
 20
-22.81643840815774
 30
0.0
  0
VERTEX
  5
474
330
469
100
AcDbEntity
  8
DRYERJACK 486AL
 62
     7
100
AcDbVertex
100
AcDb2dVertex
 10
41.18407996523473
 20
-23.09841399604218
 30
0.0
  0
VERTEX
  5
475
330
469
100
AcDbEntity
  8
DRYERJACK 486AL
 62
     7
100
AcDbVertex
100
AcDb2dVertex
 10
41.56922574579441
 20
-23.44904546721808
 30
0.0
  0
SEQEND
  5
476
330
469
100
AcDbEntity
  8
DRYERJACK 486AL
 62
     7
  0
LINE
  5
477
330
42A
100
AcDbEntity
  8
DRYERJACK 486AL
 62
     7
100
AcDbLine
 10
41.5692257457944
 20
-23.44904546721808
 30
0.0
 11
41.48398908486271
 21
-23.59557743958457
 31
0.0
  0
LINE
  5
478
330
42A
100
AcDbEntity
  8
DRYERJACK 486AL
 62
     7
100
AcDbLine
 10
39.7234292471235
 20
-25.03569499580189
 30
0.0
 11
40.56517144463029
 21
-23.99233175031391
 31
0.0
  0
POLYLINE
  5
479
330
42A
100
AcDbEntity
  8
DRYERJACK 486AL
 62
     7
100
AcDb2dPolyline
 66
     1
 10
0.0
 20
0.0
 30
0.0
  0
VERTEX
  5
47A
330
479
100
AcDbEntity
  8
DRYERJACK 486AL
 62
     7
100
AcDbVertex
100
AcDb2dVertex
 10
41.48398908486271
 20
-23.59557743958458
 30
0.0
  0
VERTEX
  5
47B
330
479
100
AcDbEntity
  8
DRYERJACK 486AL
 62
     7
100
AcDbVertex
100
AcDb2dVertex
 10
41.27542001605025
 20
-23.71953376476714
 30
0.0
  0
VERTEX
  5
47C
330
479
100
AcDbEntity
  8
DRYERJACK 486AL
 62
     7
100
AcDbVertex
100
AcDb2dVertex
 10
41.02568793094899
 20
-23.76424303984296
 30
0.0
  0
SEQEND
  5
47D
330
479
100
AcDbEntity
  8
DRYERJACK 486AL
 62
     7
  0
POLYLINE
  5
47E
330
42A
100
AcDbEntity
  8
DRYERJACK 486AL
 62
     7
100
AcDb2dPolyline
 66
     1
 10
0.0
 20
0.0
 30
0.0
  0
VERTEX
  5
47F
330
47E
100
AcDbEntity
  8
DRYERJACK 486AL
 62
     7
100
AcDbVertex
100
AcDb2dVertex
 10
40.56517144463031
 20
-23.99233175031391
 30
0.0
  0
VERTEX
  5
480
330
47E
100
AcDbEntity
  8
DRYERJACK 486AL
 62
     7
100
AcDbVertex
100
AcDb2dVertex
 10
40.76875708489148
 20
-23.83810311092402
 30
0.0
  0
VERTEX
  5
481
330
47E
100
AcDbEntity
  8
DRYERJACK 486AL
 62
     7
100
AcDbVertex
100
AcDb2dVertex
 10
41.025687930949
 20
-23.76424303984296
 30
0.0
  0
SEQEND
  5
482
330
47E
100
AcDbEntity
  8
DRYERJACK 486AL
 62
     7
  0
LINE
  5
483
330
42A
100
AcDbEntity
  8
DRYERJACK 486AL
 62
     7
100
AcDbLine
 10
39.72006982671555
 20
-25.03263130517424
 30
0.0
 11
39.9111275347129
 21
-24.64598557835343
 31
0.0
  0
LINE
  5
484
330
42A
100
AcDbEntity
  8
DRYERJACK 486AL
 62
     7
100
AcDbLine
 10
39.91283465415749
 20
-24.64086422001968
 30
0.0
 11
39.90233959207744
 21
-24.80807781045111
 31
0.0
  0
LINE
  5
485
330
42A
100
AcDbEntity
  8
DRYERJACK 486AL
 62
     7
100
AcDbLine
 10
35.53595231033022
 20
-23.67779392098375
 30
0.0
 11
41.1849687929313
 21
-25.56079941518412
 31
0.0
  0
LINE
  5
486
330
42A
100
AcDbEntity
  8
DRYERJACK 486AL
 62
     7
100
AcDbLine
 10
36.91633067299853
 20
-24.05844229735057
 30
0.0
 11
36.90080323708288
 21
-24.10502460509751
 31
0.0
  0
ARC
  5
487
330
42A
100
AcDbEntity
  8
DRYERJACK 486AL
 62
     7
100
AcDbCircle
 10
37.97520305631232
 20
-24.89249016276409
 30
0.0
 40
1.947561123213039
100
AcDbArc
 50
4.138412667352204
 51
96.4114139719869
  0
ENDBLK
  5
489
330
42A
100
AcDbEntity
  8
0
100
AcDbBlockEnd
  0
BLOCK
  5
466
330
450
100
AcDbEntity
  8
0
100
AcDbBlockBegin
  2
PD_4194
 70
     0
 10
0.0
 20
0.0
 30
0.0
  3
PD_4194
  1

  0
POLYLINE
  5
451
330
450
100
AcDbEntity
  8
DRYERJACK 486AL
 62
     7
100
AcDb2dPolyline
 66
     1
 10
0.0
 20
0.0
 30
0.0
  0
VERTEX
  5
452
330
451
100
AcDbEntity
  8
DRYERJACK 486AL
 62
     7
100
AcDbVertex
100
AcDb2dVertex
 10
39.13108855515699
 20
-24.89723027621185
 30
0.0
  0
VERTEX
  5
453
330
451
100
AcDbEntity
  8
DRYERJACK 486AL
 62
     7
100
AcDbVertex
100
AcDb2dVertex
 10
38.79158291191947
 20
-25.91574720592441
 30
0.0
  0
VERTEX
  5
454
330
451
100
AcDbEntity
  8
DRYERJACK 486AL
 62
     7
100
AcDbVertex
100
AcDb2dVertex
 10
36.89421631581845
 20
-25.28329167389073
 30
0.0
  0
VERTEX
  5
455
330
451
100
AcDbEntity
  8
DRYERJACK 486AL
 62
     7
100
AcDbVertex
100
AcDb2dVertex
 10
37.23372195905597
 20
-24.26477474417817
 30
0.0
  0
VERTEX
  5
456
330
451
100
AcDbEntity
  8
DRYERJACK 486AL
 62
     7
100
AcDbVertex
100
AcDb2dVertex
 10
39.13108855515699
 20
-24.89723027621185
 30
0.0
  0
SEQEND
  5
457
330
451
100
AcDbEntity
  8
DRYERJACK 486AL
 62
     7
  0
POLYLINE
  5
458
330
450
100
AcDbEntity
  8
DRYERJACK 486AL
 62
     7
100
AcDb2dPolyline
 66
     1
 10
0.0
 20
0.0
 30
0.0
  0
VERTEX
  5
459
330
458
100
AcDbEntity
  8
DRYERJACK 486AL
 62
     7
100
AcDbVertex
100
AcDb2dVertex
 10
39.30852746831089
 20
-24.36491353675017
 30
0.0
  0
VERTEX
  5
45A
330
458
100
AcDbEntity
  8
DRYERJACK 486AL
 62
     7
100
AcDbVertex
100
AcDb2dVertex
 10
39.1539272271471
 20
-24.82871426024153
 30
0.0
  0
VERTEX
  5
45B
330
458
100
AcDbEntity
  8
DRYERJACK 486AL
 62
     7
100
AcDbVertex
100
AcDb2dVertex
 10
37.25656063104608
 20
-24.19625872820784
 30
0.0
  0
VERTEX
  5
45C
330
458
100
AcDbEntity
  8
DRYERJACK 486AL
 62
     7
100
AcDbVertex
100
AcDb2dVertex
 10
37.41116087220986
 20
-23.73245800471649
 30
0.0
  0
VERTEX
  5
45D
330
458
100
AcDbEntity
  8
DRYERJACK 486AL
 62
     7
100
AcDbVertex
100
AcDb2dVertex
 10
39.30852746831089
 20
-24.36491353675017
 30
0.0
  0
SEQEND
  5
45E
330
458
100
AcDbEntity
  8
DRYERJACK 486AL
 62
     7
  0
LINE
  5
45F
330
450
100
AcDbEntity
  8
DRYERJACK 486AL
 62
     7
100
AcDbLine
 10
37.41162163824593
 20
-23.73107570660827
 30
0.0
 11
36.89287282723444
 21
-25.28732213964276
 31
0.0
  0
LINE
  5
460
330
450
100
AcDbEntity
  8
DRYERJACK 486AL
 62
     7
100
AcDbLine
 10
39.30898823434696
 20
-24.36353123864194
 30
0.0
 11
38.79023942333546
 21
-25.91977767167643
 31
0.0
  0
LINE
  5
461
330
450
100
AcDbEntity
  8
DRYERJACK 486AL
 62
     7
100
AcDbLine
 10
37.41162163824593
 20
-23.73107570660827
 30
0.0
 11
37.7481053809713
 21
-23.84323695418338
 31
0.0
  0
LINE
  5
462
330
450
100
AcDbEntity
  8
DRYERJACK 486AL
 62
     7
100
AcDbLine
 10
37.7481053809713
 20
-23.84323695418338
 30
0.0
 11
39.30898823434696
 21
-24.36353123864194
 31
0.0
  0
LINE
  5
463
330
450
100
AcDbEntity
  8
DRYERJACK 486AL
 62
     7
100
AcDbLine
 10
37.25484482991359
 20
-24.20140613160528
 30
0.0
 11
39.15221142601462
 21
-24.83386166363896
 31
0.0
  0
LINE
  5
464
330
450
100
AcDbEntity
  8
DRYERJACK 486AL
 62
     7
100
AcDbLine
 10
37.23425422179702
 20
-24.26317795595502
 30
0.0
 11
39.13162081789804
 21
-24.89563348798871
 31
0.0
  0
LINE
  5
465
330
450
100
AcDbEntity
  8
DRYERJACK 486AL
 62
     7
100
AcDbLine
 10
36.89287282723444
 20
-25.28732213964276
 30
0.0
 11
38.79023942333546
 21
-25.91977767167643
 31
0.0
  0
ENDBLK
  5
467
330
450
100
AcDbEntity
  8
0
100
AcDbBlockEnd
  0
BLOCK
  5
4E9
330
48B
100
AcDbEntity
  8
0
100
AcDbBlockBegin
  2
PD_4195
 70
     0
 10
0.0
 20
0.0
 30
0.0
  3
PD_4195
  1

  0
POLYLINE
  5
48C
330
48B
100
AcDbEntity
  8
DRYERJACK 486AL
 62
   253
420
 11184810
100
AcDb2dPolyline
 66
     1
 10
0.0
 20
0.0
 30
0.0
  0
VERTEX
  5
48D
330
48C
100
AcDbEntity
  8
DRYERJACK 486AL
 62
   253
420
 11184810
100
AcDbVertex
100
AcDb2dVertex
 10
20.55746149223246
 20
-24.15544658823992
 30
0.0
  0
VERTEX
  5
48E
330
48C
100
AcDbEntity
  8
DRYERJACK 486AL
 62
   253
420
 11184810
100
AcDbVertex
100
AcDb2dVertex
 10
20.75013956258545
 20
-23.63318228957935
 30
0.0
  0
VERTEX
  5
48F
330
48C
100
AcDbEntity
  8
DRYERJACK 486AL
 62
   253
420
 11184810
100
AcDbVertex
100
AcDb2dVertex
 10
21.06612116880201
 20
-23.17881366415215
 30
0.0
  0
VERTEX
  5
490
330
48C
100
AcDbEntity
  8
DRYERJACK 486AL
 62
   253
420
 11184810
100
AcDbVertex
100
AcDb2dVertex
 10
21.38399191232448
 20
-22.88421519445112
 30
0.0
  0
VERTEX
  5
491
330
48C
100
AcDbEntity
  8
DRYERJACK 486AL
 62
   253
420
 11184810
100
AcDbVertex
100
AcDb2dVertex
 10
22.02416563625242
 20
-22.52497148167562
 30
0.0
  0
VERTEX
  5
492
330
48C
100
AcDbEntity
  8
DRYERJACK 486AL
 62
   253
420
 11184810
100
AcDbVertex
100
AcDb2dVertex
 10
22.69207961901019
 20
-22.35588164213401
 30
0.0
  0
VERTEX
  5
493
330
48C
100
AcDbEntity
  8
DRYERJACK 486AL
 62
   253
420
 11184810
100
AcDbVertex
100
AcDb2dVertex
 10
23.25896879557472
 20
-22.3369018321294
 30
0.0
  0
VERTEX
  5
494
330
48C
100
AcDbEntity
  8
DRYERJACK 486AL
 62
   253
420
 11184810
100
AcDbVertex
100
AcDb2dVertex
 10
23.76897752149886
 20
-22.41032253208569
 30
0.0
  0
VERTEX
  5
495
330
48C
100
AcDbEntity
  8
DRYERJACK 486AL
 62
   253
420
 11184810
100
AcDbVertex
100
AcDb2dVertex
 10
24.24720577665601
 20
-22.56146843144767
 30
0.0
  0
VERTEX
  5
496
330
48C
100
AcDbEntity
  8
DRYERJACK 486AL
 62
   253
420
 11184810
100
AcDbVertex
100
AcDb2dVertex
 10
24.70772759367798
 20
-22.79593647662753
 30
0.0
  0
VERTEX
  5
497
330
48C
100
AcDbEntity
  8
DRYERJACK 486AL
 62
   253
420
 11184810
100
AcDbVertex
100
AcDb2dVertex
 10
25.16070830734149
 20
-23.14565261320134
 30
0.0
  0
VERTEX
  5
498
330
48C
100
AcDbEntity
  8
DRYERJACK 486AL
 62
   253
420
 11184810
100
AcDbVertex
100
AcDb2dVertex
 10
25.09542197146671
 20
-23.28077868945658
 30
0.0
  0
VERTEX
  5
499
330
48C
100
AcDbEntity
  8
DRYERJACK 486AL
 62
   253
420
 11184810
100
AcDbVertex
100
AcDb2dVertex
 10
25.02331146610879
 20
-23.35446243832607
 30
0.0
  0
VERTEX
  5
49A
330
48C
100
AcDbEntity
  8
DRYERJACK 486AL
 62
   253
420
 11184810
100
AcDbVertex
100
AcDb2dVertex
 10
24.91035682338829
 20
-23.4256621623464
 30
0.0
  0
VERTEX
  5
49B
330
48C
100
AcDbEntity
  8
DRYERJACK 486AL
 62
   253
420
 11184810
100
AcDbVertex
100
AcDb2dVertex
 10
24.76633476938257
 20
-23.47884822586062
 30
0.0
  0
VERTEX
  5
49C
330
48C
100
AcDbEntity
  8
DRYERJACK 486AL
 62
   253
420
 11184810
100
AcDbVertex
100
AcDb2dVertex
 10
24.5912236174624
 20
-23.51100634869371
 30
0.0
  0
VERTEX
  5
49D
330
48C
100
AcDbEntity
  8
DRYERJACK 486AL
 62
   253
420
 11184810
100
AcDbVertex
100
AcDb2dVertex
 10
24.46334428200146
 20
-23.55612399655533
 30
0.0
  0
VERTEX
  5
49E
330
48C
100
AcDbEntity
  8
DRYERJACK 486AL
 62
   253
420
 11184810
100
AcDbVertex
100
AcDb2dVertex
 10
24.33007330054918
 20
-23.635243628333
 30
0.0
  0
VERTEX
  5
49F
330
48C
100
AcDbEntity
  8
DRYERJACK 486AL
 62
   253
420
 11184810
100
AcDbVertex
100
AcDb2dVertex
 10
24.19993821592009
 20
-23.76561381701989
 30
0.0
  0
VERTEX
  5
4A0
330
48C
100
AcDbEntity
  8
DRYERJACK 486AL
 62
   253
420
 11184810
100
AcDbVertex
100
AcDb2dVertex
 10
23.4243465557212
 20
-24.89927433081596
 30
0.0
  0
VERTEX
  5
4A1
330
48C
100
AcDbEntity
  8
DRYERJACK 486AL
 62
   253
420
 11184810
100
AcDbVertex
100
AcDb2dVertex
 10
20.57180645804031
 20
-24.18613930639572
 30
0.0
  0
SEQEND
  5
4A2
330
48C
100
AcDbEntity
  8
DRYERJACK 486AL
 62
   253
420
 11184810
  0
POLYLINE
  5
4A3
330
48B
100
AcDbEntity
  8
DRYERJACK 486AL
 62
   253
420
 11184810
100
AcDb2dPolyline
 66
     1
 10
0.0
 20
0.0
 30
0.0
  0
VERTEX
  5
4A4
330
4A3
100
AcDbEntity
  8
DRYERJACK 486AL
 62
   253
420
 11184810
100
AcDbVertex
100
AcDb2dVertex
 10
22.97752449260178
 20
-24.23191325599753
 30
0.0
  0
VERTEX
  5
4A5
330
4A3
100
AcDbEntity
  8
DRYERJACK 486AL
 62
   253
420
 11184810
100
AcDbVertex
100
AcDb2dVertex
 10
22.86029894050089
 20
-24.7008154644011
 30
0.0
  0
VERTEX
  5
4A6
330
4A3
100
AcDbEntity
  8
DRYERJACK 486AL
 62
   253
420
 11184810
100
AcDbVertex
100
AcDb2dVertex
 10
20.92001394021023
 20
-24.21574421432842
 30
0.0
  0
VERTEX
  5
4A7
330
4A3
100
AcDbEntity
  8
DRYERJACK 486AL
 62
   253
420
 11184810
100
AcDbVertex
100
AcDb2dVertex
 10
21.03723949231112
 20
-23.74684200592485
 30
0.0
  0
VERTEX
  5
4A8
330
4A3
100
AcDbEntity
  8
DRYERJACK 486AL
 62
   253
420
 11184810
100
AcDbVertex
100
AcDb2dVertex
 10
22.97752449260178
 20
-24.23191325599753
 30
0.0
  0
SEQEND
  5
4A9
330
4A3
100
AcDbEntity
  8
DRYERJACK 486AL
 62
   253
420
 11184810
  0
POLYLINE
  5
4AA
330
48B
100
AcDbEntity
  8
DRYERJACK 486AL
 62
   253
420
 11184810
100
AcDb2dPolyline
 66
     1
 10
0.0
 20
0.0
 30
0.0
  0
VERTEX
  5
4AB
330
4AA
100
AcDbEntity
  8
DRYERJACK 486AL
 62
   253
420
 11184810
100
AcDbVertex
100
AcDb2dVertex
 10
22.84143505855361
 20
-24.77627099219018
 30
0.0
  0
VERTEX
  5
4AC
330
4AA
100
AcDbEntity
  8
DRYERJACK 486AL
 62
   253
420
 11184810
100
AcDbVertex
100
AcDb2dVertex
 10
22.58273039184819
 20
-25.81108965901188
 30
0.0
  0
VERTEX
  5
4AD
330
4AA
100
AcDbEntity
  8
DRYERJACK 486AL
 62
   253
420
 11184810
100
AcDbVertex
100
AcDb2dVertex
 10
20.64244539155753
 20
-25.3260184089392
 30
0.0
  0
VERTEX
  5
4AE
330
4AA
100
AcDbEntity
  8
DRYERJACK 486AL
 62
   253
420
 11184810
100
AcDbVertex
100
AcDb2dVertex
 10
20.90115005826296
 20
-24.29119974211751
 30
0.0
  0
VERTEX
  5
4AF
330
4AA
100
AcDbEntity
  8
DRYERJACK 486AL
 62
   253
420
 11184810
100
AcDbVertex
100
AcDb2dVertex
 10
22.84143505855361
 20
-24.77627099219018
 30
0.0
  0
SEQEND
  5
4B0
330
4AA
100
AcDbEntity
  8
DRYERJACK 486AL
 62
   253
420
 11184810
  0
INSERT
  5
4C9
330
48B
100
AcDbEntity
  8
DRYERJACK 486AL
100
AcDbBlockReference
  2
PD_4196
 10
0.0
 20
0.0
 30
0.0
  0
POLYLINE
  5
4CA
330
48B
100
AcDbEntity
  8
DRYERJACK 486AL
 62
     7
100
AcDb2dPolyline
 66
     1
 10
0.0
 20
0.0
 30
0.0
  0
VERTEX
  5
4CB
330
4CA
100
AcDbEntity
  8
DRYERJACK 486AL
 62
     7
100
AcDbVertex
100
AcDb2dVertex
 10
20.56937049194634
 20
-24.10781058938442
 30
0.0
  0
VERTEX
  5
4CC
330
4CA
100
AcDbEntity
  8
DRYERJACK 486AL
 62
     7
100
AcDbVertex
100
AcDb2dVertex
 10
20.73274563414088
 20
-23.66714673786473
 30
0.0
  0
VERTEX
  5
4CD
330
4CA
100
AcDbEntity
  8
DRYERJACK 486AL
 62
     7
100
AcDbVertex
100
AcDb2dVertex
 10
20.99015144523082
 20
-23.26805068104573
 30
0.0
  0
VERTEX
  5
4CE
330
4CA
100
AcDbEntity
  8
DRYERJACK 486AL
 62
     7
100
AcDbVertex
100
AcDb2dVertex
 10
21.33193328756625
 20
-22.92549149751886
 30
0.0
  0
VERTEX
  5
4CF
330
4CA
100
AcDbEntity
  8
DRYERJACK 486AL
 62
     7
100
AcDbVertex
100
AcDb2dVertex
 10
21.74527179304859
 20
-22.65231771147477
 30
0.0
  0
VERTEX
  5
4D0
330
4CA
100
AcDbEntity
  8
DRYERJACK 486AL
 62
     7
100
AcDbVertex
100
AcDb2dVertex
 10
22.21466368504127
 20
-22.45877537722182
 30
0.0
  0
VERTEX
  5
4D1
330
4CA
100
AcDbEntity
  8
DRYERJACK 486AL
 62
     7
100
AcDbVertex
100
AcDb2dVertex
 10
22.72250326686708
 20
-22.35212377573435
 30
0.0
  0
VERTEX
  5
4D2
330
4CA
100
AcDbEntity
  8
DRYERJACK 486AL
 62
     7
100
AcDbVertex
100
AcDb2dVertex
 10
23.24974276673698
 20
-22.33636313747641
 30
0.0
  0
VERTEX
  5
4D3
330
4CA
100
AcDbEntity
  8
DRYERJACK 486AL
 62
     7
100
AcDbVertex
100
AcDb2dVertex
 10
23.77660677125057
 20
-22.41208460392561
 30
0.0
  0
VERTEX
  5
4D4
330
4CA
100
AcDbEntity
  8
DRYERJACK 486AL
 62
     7
100
AcDbVertex
100
AcDb2dVertex
 10
24.28333395088376
 20
-22.57644805535896
 30
0.0
  0
VERTEX
  5
4D5
330
4CA
100
AcDbEntity
  8
DRYERJACK 486AL
 62
     7
100
AcDbVertex
100
AcDb2dVertex
 10
24.75091825722604
 20
-22.82328863652413
 30
0.0
  0
VERTEX
  5
4D6
330
4CA
100
AcDbEntity
  8
DRYERJACK 486AL
 62
     7
100
AcDbVertex
100
AcDb2dVertex
 10
25.16182179154306
 20
-23.14334798468891
 30
0.0
  0
SEQEND
  5
4D7
330
4CA
100
AcDbEntity
  8
DRYERJACK 486AL
 62
     7
  0
LINE
  5
4D8
330
48B
100
AcDbEntity
  8
DRYERJACK 486AL
 62
     7
100
AcDbLine
 10
25.16182179154305
 20
-23.14334798468891
 30
0.0
 11
25.08807468568713
 21
-23.2959856984764
 31
0.0
  0
LINE
  5
4D9
330
48B
100
AcDbEntity
  8
DRYERJACK 486AL
 62
     7
100
AcDbLine
 10
23.4431525770196
 20
-24.86689014318413
 30
0.0
 11
24.20239310268578
 21
-23.76204145975053
 31
0.0
  0
POLYLINE
  5
4DA
330
48B
100
AcDbEntity
  8
DRYERJACK 486AL
 62
     7
100
AcDb2dPolyline
 66
     1
 10
0.0
 20
0.0
 30
0.0
  0
VERTEX
  5
4DB
330
4DA
100
AcDbEntity
  8
DRYERJACK 486AL
 62
     7
100
AcDbVertex
100
AcDb2dVertex
 10
25.08807468568712
 20
-23.29598569847641
 30
0.0
  0
VERTEX
  5
4DC
330
4DA
100
AcDbEntity
  8
DRYERJACK 486AL
 62
     7
100
AcDbVertex
100
AcDb2dVertex
 10
24.88962697624689
 20
-23.43557342585953
 30
0.0
  0
VERTEX
  5
4DD
330
4DA
100
AcDbEntity
  8
DRYERJACK 486AL
 62
     7
100
AcDbVertex
100
AcDb2dVertex
 10
24.644059525489
 20
-23.49930458570386
 30
0.0
  0
SEQEND
  5
4DE
330
4DA
100
AcDbEntity
  8
DRYERJACK 486AL
 62
     7
  0
POLYLINE
  5
4DF
330
48B
100
AcDbEntity
  8
DRYERJACK 486AL
 62
     7
100
AcDb2dPolyline
 66
     1
 10
0.0
 20
0.0
 30
0.0
  0
VERTEX
  5
4E0
330
4DF
100
AcDbEntity
  8
DRYERJACK 486AL
 62
     7
100
AcDbVertex
100
AcDb2dVertex
 10
24.20239310268578
 20
-23.76204145975054
 30
0.0
  0
VERTEX
  5
4E1
330
4DF
100
AcDbEntity
  8
DRYERJACK 486AL
 62
     7
100
AcDbVertex
100
AcDb2dVertex
 10
24.39355028182293
 20
-23.5926527972228
 30
0.0
  0
VERTEX
  5
4E2
330
4DF
100
AcDbEntity
  8
DRYERJACK 486AL
 62
     7
100
AcDbVertex
100
AcDb2dVertex
 10
24.644059525489
 20
-23.49930458570386
 30
0.0
  0
SEQEND
  5
4E3
330
4DF
100
AcDbEntity
  8
DRYERJACK 486AL
 62
     7
  0
LINE
  5
4E4
330
48B
100
AcDbEntity
  8
DRYERJACK 486AL
 62
     7
100
AcDbLine
 10
23.43956807748837
 20
-24.86409313248521
 30
0.0
 11
23.60040864868089
 21
-24.46393281897016
 31
0.0
  0
LINE
  5
4E5
330
48B
100
AcDbEntity
  8
DRYERJACK 486AL
 62
     7
100
AcDbLine
 10
23.60171794952666
 20
-24.45869561558706
 30
0.0
 11
23.60407849775616
 21
-24.62622161048066
 31
0.0
  0
LINE
  5
4E6
330
48B
100
AcDbEntity
  8
DRYERJACK 486AL
 62
     7
100
AcDbLine
 10
19.16386365598507
 20
-23.8341536058819
 30
0.0
 11
24.94066080742074
 21
-25.27835289374085
 31
0.0
  0
LINE
  5
4E7
330
48B
100
AcDbEntity
  8
DRYERJACK 486AL
 62
     7
100
AcDbLine
 10
20.56937049194633
 20
-24.10781058938442
 30
0.0
 11
20.55746149223246
 21
-24.15544658823992
 31
0.0
  0
ARC
  5
4E8
330
48B
100
AcDbEntity
  8
DRYERJACK 486AL
 62
     7
100
AcDbCircle
 10
21.68909250248261
 20
-24.8581899501521
 30
0.0
 40
1.947561123213039
100
AcDbArc
 50
8.537118022347576
 51
100.8101193269823
  0
ENDBLK
  5
4EA
330
48B
100
AcDbEntity
  8
0
100
AcDbBlockEnd
  0
BLOCK
  5
4C7
330
4B1
100
AcDbEntity
  8
0
100
AcDbBlockBegin
  2
PD_4196
 70
     0
 10
0.0
 20
0.0
 30
0.0
  3
PD_4196
  1

  0
POLYLINE
  5
4B2
330
4B1
100
AcDbEntity
  8
DRYERJACK 486AL
 62
     7
100
AcDb2dPolyline
 66
     1
 10
0.0
 20
0.0
 30
0.0
  0
VERTEX
  5
4B3
330
4B2
100
AcDbEntity
  8
DRYERJACK 486AL
 62
     7
100
AcDbVertex
100
AcDb2dVertex
 10
22.84193687393767
 20
-24.77426373065395
 30
0.0
  0
VERTEX
  5
4B4
330
4B2
100
AcDbEntity
  8
DRYERJACK 486AL
 62
     7
100
AcDbVertex
100
AcDb2dVertex
 10
22.58154793205839
 20
-25.81581949817109
 30
0.0
  0
VERTEX
  5
4B5
330
4B2
100
AcDbEntity
  8
DRYERJACK 486AL
 62
     7
100
AcDbVertex
100
AcDb2dVertex
 10
20.64126293176772
 20
-25.33074824809842
 30
0.0
  0
VERTEX
  5
4B6
330
4B2
100
AcDbEntity
  8
DRYERJACK 486AL
 62
     7
100
AcDbVertex
100
AcDb2dVertex
 10
20.90165187364702
 20
-24.28919248058127
 30
0.0
  0
VERTEX
  5
4B7
330
4B2
100
AcDbEntity
  8
DRYERJACK 486AL
 62
     7
100
AcDbVertex
100
AcDb2dVertex
 10
22.84193687393767
 20
-24.77426373065395
 30
0.0
  0
SEQEND
  5
4B8
330
4B2
100
AcDbEntity
  8
DRYERJACK 486AL
 62
     7
  0
POLYLINE
  5
4B9
330
4B1
100
AcDbEntity
  8
DRYERJACK 486AL
 62
     7
100
AcDb2dPolyline
 66
     1
 10
0.0
 20
0.0
 30
0.0
  0
VERTEX
  5
4BA
330
4B9
100
AcDbEntity
  8
DRYERJACK 486AL
 62
     7
100
AcDbVertex
100
AcDb2dVertex
 10
22.97802630798584
 20
-24.22990599446129
 30
0.0
  0
VERTEX
  5
4BB
330
4B9
100
AcDbEntity
  8
DRYERJACK 486AL
 62
     7
100
AcDbVertex
100
AcDb2dVertex
 10
22.85945333574586
 20
-24.70419788342122
 30
0.0
  0
VERTEX
  5
4BC
330
4B9
100
AcDbEntity
  8
DRYERJACK 486AL
 62
     7
100
AcDbVertex
100
AcDb2dVertex
 10
20.9191683354552
 20
-24.21912663334854
 30
0.0
  0
VERTEX
  5
4BD
330
4B9
100
AcDbEntity
  8
DRYERJACK 486AL
 62
     7
100
AcDbVertex
100
AcDb2dVertex
 10
21.03774130769518
 20
-23.74483474438862
 30
0.0
  0
VERTEX
  5
4BE
330
4B9
100
AcDbEntity
  8
DRYERJACK 486AL
 62
     7
100
AcDbVertex
100
AcDb2dVertex
 10
22.97802630798584
 20
-24.22990599446129
 30
0.0
  0
SEQEND
  5
4BF
330
4B9
100
AcDbEntity
  8
DRYERJACK 486AL
 62
     7
  0
LINE
  5
4C0
330
4B1
100
AcDbEntity
  8
DRYERJACK 486AL
 62
     7
100
AcDbLine
 10
21.0380946991129
 20
-23.74342117871773
 30
0.0
 11
20.64023252306087
 21
-25.33486988292582
 31
0.0
  0
LINE
  5
4C1
330
4B1
100
AcDbEntity
  8
DRYERJACK 486AL
 62
     7
100
AcDbLine
 10
22.97837969940356
 20
-24.22849242879041
 30
0.0
 11
22.58051752335154
 21
-25.81994113299848
 31
0.0
  0
LINE
  5
4C2
330
4B1
100
AcDbEntity
  8
DRYERJACK 486AL
 62
     7
100
AcDbLine
 10
21.0380946991129
 20
-23.74342117871773
 30
0.0
 11
21.38218969909513
 21
-23.82944492871329
 31
0.0
  0
LINE
  5
4C3
330
4B1
100
AcDbEntity
  8
DRYERJACK 486AL
 62
     7
100
AcDbLine
 10
21.38218969909513
 20
-23.82944492871329
 30
0.0
 11
22.97837969940356
 21
-24.22849242879041
 31
0.0
  0
LINE
  5
4C4
330
4B1
100
AcDbEntity
  8
DRYERJACK 486AL
 62
     7
100
AcDbLine
 10
20.91785237605876
 20
-24.22439047093428
 30
0.0
 11
22.85813737634942
 21
-24.70946172100696
 31
0.0
  0
LINE
  5
4C5
330
4B1
100
AcDbEntity
  8
DRYERJACK 486AL
 62
     7
100
AcDbLine
 10
20.90206010053426
 20
-24.28755957303227
 30
0.0
 11
22.84234510082492
 21
-24.77263082310494
 31
0.0
  0
LINE
  5
4C6
330
4B1
100
AcDbEntity
  8
DRYERJACK 486AL
 62
     7
100
AcDbLine
 10
20.64023252306087
 20
-25.33486988292582
 30
0.0
 11
22.58051752335154
 21
-25.81994113299848
 31
0.0
  0
ENDBLK
  5
4C8
330
4B1
100
AcDbEntity
  8
0
100
AcDbBlockEnd
  0
BLOCK
  5
556
330
4EC
100
AcDbEntity
  8
0
100
AcDbBlockBegin
  2
PD_4197
 70
     0
 10
0.0
 20
0.0
 30
0.0
  3
PD_4197
  1

  0
POLYLINE
  5
4ED
330
4EC
100
AcDbEntity
  8
DRYERJACK 486AL
 62
   253
420
 11184810
100
AcDb2dPolyline
 66
     1
 10
0.0
 20
0.0
 30
0.0
  0
VERTEX
  5
4EE
330
4ED
100
AcDbEntity
  8
DRYERJACK 486AL
 62
   253
420
 11184810
100
AcDbVertex
100
AcDb2dVertex
 10
25.47353218205586
 20
-84.22641803493295
 30
0.0
  0
VERTEX
  5
4EF
330
4ED
100
AcDbEntity
  8
DRYERJACK 486AL
 62
   253
420
 11184810
100
AcDbVertex
100
AcDb2dVertex
 10
25.65430464241274
 20
-82.56621176894373
 30
0.0
  0
VERTEX
  5
4F0
330
4ED
100
AcDbEntity
  8
DRYERJACK 486AL
 62
   253
420
 11184810
100
AcDbVertex
100
AcDb2dVertex
 10
26.24334446308268
 20
-81.01389443707397
 30
0.0
  0
VERTEX
  5
4F1
330
4ED
100
AcDbEntity
  8
DRYERJACK 486AL
 62
   253
420
 11184810
100
AcDbVertex
100
AcDb2dVertex
 10
26.95413234466345
 20
-79.92520201088678
 30
0.0
  0
VERTEX
  5
4F2
330
4ED
100
AcDbEntity
  8
DRYERJACK 486AL
 62
   253
420
 11184810
100
AcDbVertex
100
AcDb2dVertex
 10
28.55592336058472
 20
-78.41385442707212
 30
0.0
  0
VERTEX
  5
4F3
330
4ED
100
AcDbEntity
  8
DRYERJACK 486AL
 62
   253
420
 11184810
100
AcDbVertex
100
AcDb2dVertex
 10
30.37680765416711
 20
-77.4357519021899
 30
0.0
  0
VERTEX
  5
4F4
330
4ED
100
AcDbEntity
  8
DRYERJACK 486AL
 62
   253
420
 11184810
100
AcDbVertex
100
AcDb2dVertex
 10
32.01288766309239
 20
-76.9680400789062
 30
0.0
  0
VERTEX
  5
4F5
330
4ED
100
AcDbEntity
  8
DRYERJACK 486AL
 62
   253
420
 11184810
100
AcDbVertex
100
AcDb2dVertex
 10
33.55065249054788
 20
-76.81063984781227
 30
0.0
  0
VERTEX
  5
4F6
330
4ED
100
AcDbEntity
  8
DRYERJACK 486AL
 62
   253
420
 11184810
100
AcDbVertex
100
AcDb2dVertex
 10
35.05247595136306
 20
-76.90257686356976
 30
0.0
  0
VERTEX
  5
4F7
330
4ED
100
AcDbEntity
  8
DRYERJACK 486AL
 62
   253
420
 11184810
100
AcDbVertex
100
AcDb2dVertex
 10
36.5633918738408
 20
-77.24990027003183
 30
0.0
  0
VERTEX
  5
4F8
330
4ED
100
AcDbEntity
  8
DRYERJACK 486AL
 62
   253
420
 11184810
100
AcDbVertex
100
AcDb2dVertex
 10
38.13621526536186
 20
-77.93813184970912
 30
0.0
  0
VERTEX
  5
4F9
330
4ED
100
AcDbEntity
  8
DRYERJACK 486AL
 62
   253
420
 11184810
100
AcDbVertex
100
AcDb2dVertex
 10
38.04452278011897
 20
-78.37890928490154
 30
0.0
  0
VERTEX
  5
4FA
330
4ED
100
AcDbEntity
  8
DRYERJACK 486AL
 62
   253
420
 11184810
100
AcDbVertex
100
AcDb2dVertex
 10
37.88826318451621
 20
-78.64582859341252
 30
0.0
  0
VERTEX
  5
4FB
330
4ED
100
AcDbEntity
  8
DRYERJACK 486AL
 62
   253
420
 11184810
100
AcDbVertex
100
AcDb2dVertex
 10
37.61132229474363
 20
-78.93523680284366
 30
0.0
  0
VERTEX
  5
4FC
330
4ED
100
AcDbEntity
  8
DRYERJACK 486AL
 62
   253
420
 11184810
100
AcDbVertex
100
AcDb2dVertex
 10
37.23085509356904
 20
-79.19482242139728
 30
0.0
  0
VERTEX
  5
4FD
330
4ED
100
AcDbEntity
  8
DRYERJACK 486AL
 62
   253
420
 11184810
100
AcDbVertex
100
AcDb2dVertex
 10
36.7446052526515
 20
-79.41582838449847
 30
0.0
  0
VERTEX
  5
4FE
330
4ED
100
AcDbEntity
  8
DRYERJACK 486AL
 62
   253
420
 11184810
100
AcDbVertex
100
AcDb2dVertex
 10
36.40524962876137
 20
-79.64018591125566
 30
0.0
  0
VERTEX
  5
4FF
330
4ED
100
AcDbEntity
  8
DRYERJACK 486AL
 62
   253
420
 11184810
100
AcDbVertex
100
AcDb2dVertex
 10
36.07494208737008
 20
-79.96742674576299
 30
0.0
  0
VERTEX
  5
500
330
4ED
100
AcDbEntity
  8
DRYERJACK 486AL
 62
   253
420
 11184810
100
AcDbVertex
100
AcDb2dVertex
 10
35.79105160389184
 20
-80.44154691042334
 30
0.0
  0
VERTEX
  5
501
330
4ED
100
AcDbEntity
  8
DRYERJACK 486AL
 62
   253
420
 11184810
100
AcDbVertex
100
AcDb2dVertex
 10
34.35860749081783
 20
-84.30530947017172
 30
0.0
  0
VERTEX
  5
502
330
4ED
100
AcDbEntity
  8
DRYERJACK 486AL
 62
   253
420
 11184810
100
AcDbVertex
100
AcDb2dVertex
 10
25.53761439778181
 20
-84.30530947017172
 30
0.0
  0
SEQEND
  5
503
330
4ED
100
AcDbEntity
  8
DRYERJACK 486AL
 62
   253
420
 11184810
  0
POLYLINE
  5
504
330
4EC
100
AcDbEntity
  8
DRYERJACK 486AL
 62
   253
420
 11184810
100
AcDb2dPolyline
 66
     1
 10
0.0
 20
0.0
 30
0.0
  0
VERTEX
  5
505
330
504
100
AcDbEntity
  8
DRYERJACK 486AL
 62
   253
420
 11184810
100
AcDbVertex
100
AcDb2dVertex
 10
32.40592109762882
 20
-82.68811425037572
 30
0.0
  0
VERTEX
  5
506
330
504
100
AcDbEntity
  8
DRYERJACK 486AL
 62
   253
420
 11184810
100
AcDbVertex
100
AcDb2dVertex
 10
32.40592109762882
 20
-84.13811425037571
 30
0.0
  0
VERTEX
  5
507
330
504
100
AcDbEntity
  8
DRYERJACK 486AL
 62
   253
420
 11184810
100
AcDbVertex
100
AcDb2dVertex
 10
26.40592109762882
 20
-84.13811425037571
 30
0.0
  0
VERTEX
  5
508
330
504
100
AcDbEntity
  8
DRYERJACK 486AL
 62
   253
420
 11184810
100
AcDbVertex
100
AcDb2dVertex
 10
26.40592109762882
 20
-82.68811425037572
 30
0.0
  0
VERTEX
  5
509
330
504
100
AcDbEntity
  8
DRYERJACK 486AL
 62
   253
420
 11184810
100
AcDbVertex
100
AcDb2dVertex
 10
32.40592109762882
 20
-82.68811425037572
 30
0.0
  0
SEQEND
  5
50A
330
504
100
AcDbEntity
  8
DRYERJACK 486AL
 62
   253
420
 11184810
  0
POLYLINE
  5
50B
330
4EC
100
AcDbEntity
  8
DRYERJACK 486AL
 62
   253
420
 11184810
100
AcDb2dPolyline
 66
     1
 10
0.0
 20
0.0
 30
0.0
  0
VERTEX
  5
50C
330
50B
100
AcDbEntity
  8
DRYERJACK 486AL
 62
   253
420
 11184810
100
AcDbVertex
100
AcDb2dVertex
 10
32.40592109762882
 20
-84.37144758370906
 30
0.0
  0
VERTEX
  5
50D
330
50B
100
AcDbEntity
  8
DRYERJACK 486AL
 62
   253
420
 11184810
100
AcDbVertex
100
AcDb2dVertex
 10
32.40592109762882
 20
-87.57144758370907
 30
0.0
  0
VERTEX
  5
50E
330
50B
100
AcDbEntity
  8
DRYERJACK 486AL
 62
   253
420
 11184810
100
AcDbVertex
100
AcDb2dVertex
 10
26.40592109762882
 20
-87.57144758370907
 30
0.0
  0
VERTEX
  5
50F
330
50B
100
AcDbEntity
  8
DRYERJACK 486AL
 62
   253
420
 11184810
100
AcDbVertex
100
AcDb2dVertex
 10
26.40592109762882
 20
-84.37144758370906
 30
0.0
  0
VERTEX
  5
510
330
50B
100
AcDbEntity
  8
DRYERJACK 486AL
 62
   253
420
 11184810
100
AcDbVertex
100
AcDb2dVertex
 10
32.40592109762882
 20
-84.37144758370906
 30
0.0
  0
SEQEND
  5
511
330
50B
100
AcDbEntity
  8
DRYERJACK 486AL
 62
   253
420
 11184810
  0
INSERT
  5
52A
330
4EC
100
AcDbEntity
  8
DRYERJACK 486AL
100
AcDbBlockReference
  2
PD_4198
 10
0.0
 20
0.0
 30
0.0
  0
POLYLINE
  5
52B
330
4EC
100
AcDbEntity
  8
DRYERJACK 486AL
 62
     7
100
AcDb2dPolyline
 66
     1
 10
0.0
 20
0.0
 30
0.0
  0
VERTEX
  5
52C
330
52B
100
AcDbEntity
  8
DRYERJACK 486AL
 62
     7
100
AcDbVertex
100
AcDb2dVertex
 10
25.47353218205586
 20
-84.07911184378567
 30
0.0
  0
VERTEX
  5
52D
330
52B
100
AcDbEntity
  8
DRYERJACK 486AL
 62
     7
100
AcDbVertex
100
AcDb2dVertex
 10
25.52048037727576
 20
-83.30496144253766
 30
0.0
  0
VERTEX
  5
52E
330
52B
100
AcDbEntity
  8
DRYERJACK 486AL
 62
     7
100
AcDbVertex
100
AcDb2dVertex
 10
25.66079112173384
 20
-82.53961379459065
 30
0.0
  0
VERTEX
  5
52F
330
52B
100
AcDbEntity
  8
DRYERJACK 486AL
 62
     7
100
AcDbVertex
100
AcDb2dVertex
 10
25.89286896205701
 20
-81.79177155839895
 30
0.0
  0
VERTEX
  5
530
330
52B
100
AcDbEntity
  8
DRYERJACK 486AL
 62
     7
100
AcDbVertex
100
AcDb2dVertex
 10
26.21407497437247
 20
-81.06993834088786
 30
0.0
  0
VERTEX
  5
531
330
52B
100
AcDbEntity
  8
DRYERJACK 486AL
 62
     7
100
AcDbVertex
100
AcDb2dVertex
 10
26.620756771133
 20
-80.38232200415749
 30
0.0
  0
VERTEX
  5
532
330
52B
100
AcDbEntity
  8
DRYERJACK 486AL
 62
     7
100
AcDbVertex
100
AcDb2dVertex
 10
27.10829003189244
 20
-79.73674133505881
 30
0.0
  0
VERTEX
  5
533
330
52B
100
AcDbEntity
  8
DRYERJACK 486AL
 62
     7
100
AcDbVertex
100
AcDb2dVertex
 10
27.67113108579102
 20
-79.14053713888859
 30
0.0
  0
VERTEX
  5
534
330
52B
100
AcDbEntity
  8
DRYERJACK 486AL
 62
     7
100
AcDbVertex
100
AcDb2dVertex
 10
28.30287994784243
 20
-78.600488768144
 30
0.0
  0
VERTEX
  5
535
330
52B
100
AcDbEntity
  8
DRYERJACK 486AL
 62
     7
100
AcDbVertex
100
AcDb2dVertex
 10
28.99635309224619
 20
-78.12273703547669
 30
0.0
  0
VERTEX
  5
536
330
52B
100
AcDbEntity
  8
DRYERJACK 486AL
 62
     7
100
AcDbVertex
100
AcDb2dVertex
 10
29.74366513523036
 20
-77.71271438739188
 30
0.0
  0
VERTEX
  5
537
330
52B
100
AcDbEntity
  8
DRYERJACK 486AL
 62
     7
100
AcDbVertex
100
AcDb2dVertex
 10
30.53631849862069
 20
-77.37508313267749
 30
0.0
  0
VERTEX
  5
538
330
52B
100
AcDbEntity
  8
DRYERJACK 486AL
 62
     7
100
AcDbVertex
100
AcDb2dVertex
 10
31.36530003458457
 20
-77.11368242795885
 30
0.0
  0
VERTEX
  5
539
330
52B
100
AcDbEntity
  8
DRYERJACK 486AL
 62
     7
100
AcDbVertex
100
AcDb2dVertex
 10
32.22118351284377
 20
-76.93148462319874
 30
0.0
  0
VERTEX
  5
53A
330
52B
100
AcDbEntity
  8
DRYERJACK 486AL
 62
     7
100
AcDbVertex
100
AcDb2dVertex
 10
33.0942368049884
 20
-76.83056146353184
 30
0.0
  0
VERTEX
  5
53B
330
52B
100
AcDbEntity
  8
DRYERJACK 486AL
 62
     7
100
AcDbVertex
100
AcDb2dVertex
 10
33.9745325471148
 20
-76.81206053174755
 30
0.0
  0
VERTEX
  5
53C
330
52B
100
AcDbEntity
  8
DRYERJACK 486AL
 62
     7
100
AcDbVertex
100
AcDb2dVertex
 10
34.8520610224582
 20
-76.8761921992906
 30
0.0
  0
VERTEX
  5
53D
330
52B
100
AcDbEntity
  8
DRYERJACK 486AL
 62
     7
100
AcDbVertex
100
AcDb2dVertex
 10
35.71684398044792
 20
-77.02222723415743
 30
0.0
  0
VERTEX
  5
53E
330
52B
100
AcDbEntity
  8
DRYERJACK 486AL
 62
     7
100
AcDbVertex
100
AcDb2dVertex
 10
36.55904809796509
 20
-77.24850509288883
 30
0.0
  0
VERTEX
  5
53F
330
52B
100
AcDbEntity
  8
DRYERJACK 486AL
 62
     7
100
AcDbVertex
100
AcDb2dVertex
 10
37.36909679265101
 20
-77.55245280237173
 30
0.0
  0
VERTEX
  5
540
330
52B
100
AcDbEntity
  8
DRYERJACK 486AL
 62
     7
100
AcDbVertex
100
AcDb2dVertex
 10
38.13777911685314
 20
-77.93061421674783
 30
0.0
  0
VERTEX
  5
541
330
52B
100
AcDbEntity
  8
DRYERJACK 486AL
 62
     7
100
AcDbVertex
100
AcDb2dVertex
 10
38.13777911685317
 20
-77.93061421674784
 30
0.0
  0
SEQEND
  5
542
330
52B
100
AcDbEntity
  8
DRYERJACK 486AL
 62
     7
  0
LINE
  5
543
330
4EC
100
AcDbEntity
  8
DRYERJACK 486AL
 62
     7
100
AcDbLine
 10
38.13777911685317
 20
-77.93061421674786
 30
0.0
 11
38.0342037618452
 21
-78.42851411779883
 31
0.0
  0
LINE
  5
544
330
4EC
100
AcDbEntity
  8
DRYERJACK 486AL
 62
     7
100
AcDbLine
 10
34.38977809481273
 20
-84.19737424951863
 30
0.0
 11
35.79559710213563
 21
-80.4293636310969
 31
0.0
  0
POLYLINE
  5
545
330
4EC
100
AcDbEntity
  8
DRYERJACK 486AL
 62
     7
100
AcDb2dPolyline
 66
     1
 10
0.0
 20
0.0
 30
0.0
  0
VERTEX
  5
546
330
545
100
AcDbEntity
  8
DRYERJACK 486AL
 62
     7
100
AcDbVertex
100
AcDb2dVertex
 10
38.03420376184522
 20
-78.42851411779884
 30
0.0
  0
VERTEX
  5
547
330
545
100
AcDbEntity
  8
DRYERJACK 486AL
 62
     7
100
AcDbVertex
100
AcDb2dVertex
 10
37.74197556461314
 20
-78.81316054386943
 30
0.0
  0
VERTEX
  5
548
330
545
100
AcDbEntity
  8
DRYERJACK 486AL
 62
     7
100
AcDbVertex
100
AcDb2dVertex
 10
37.35284289322034
 20
-79.12424333368124
 30
0.0
  0
VERTEX
  5
549
330
545
100
AcDbEntity
  8
DRYERJACK 486AL
 62
     7
100
AcDbVertex
100
AcDb2dVertex
 10
36.88986604918031
 20
-79.34332748175642
 30
0.0
  0
SEQEND
  5
54A
330
545
100
AcDbEntity
  8
DRYERJACK 486AL
 62
     7
  0
POLYLINE
  5
54B
330
4EC
100
AcDbEntity
  8
DRYERJACK 486AL
 62
     7
100
AcDb2dPolyline
 66
     1
 10
0.0
 20
0.0
 30
0.0
  0
VERTEX
  5
54C
330
54B
100
AcDbEntity
  8
DRYERJACK 486AL
 62
     7
100
AcDbVertex
100
AcDb2dVertex
 10
35.79559710213563
 20
-80.4293636310969
 30
0.0
  0
VERTEX
  5
54D
330
54B
100
AcDbEntity
  8
DRYERJACK 486AL
 62
     7
100
AcDbVertex
100
AcDb2dVertex
 10
36.05544955839157
 20
-79.99192264838233
 30
0.0
  0
VERTEX
  5
54E
330
54B
100
AcDbEntity
  8
DRYERJACK 486AL
 62
     7
100
AcDbVertex
100
AcDb2dVertex
 10
36.42753951002257
 20
-79.6226321377003
 30
0.0
  0
VERTEX
  5
54F
330
54B
100
AcDbEntity
  8
DRYERJACK 486AL
 62
     7
100
AcDbVertex
100
AcDb2dVertex
 10
36.88986604918031
 20
-79.34332748175643
 30
0.0
  0
SEQEND
  5
550
330
54B
100
AcDbEntity
  8
DRYERJACK 486AL
 62
     7
  0
LINE
  5
551
330
4EC
100
AcDbEntity
  8
DRYERJACK 486AL
 62
     7
100
AcDbLine
 10
34.37731054458744
 20
-84.19184185916421
 30
0.0
 11
34.55426597091265
 21
-82.9101755727308
 31
0.0
  0
LINE
  5
552
330
4EC
100
AcDbEntity
  8
DRYERJACK 486AL
 62
     7
100
AcDbLine
 10
34.55426597091265
 20
-82.89398041568228
 30
0.0
 11
34.68302924103995
 21
-83.37983512713768
 31
0.0
  0
LINE
  5
553
330
4EC
100
AcDbEntity
  8
DRYERJACK 486AL
 62
     7
100
AcDbLine
 10
21.18379173200539
 20
-84.30530947017172
 30
0.0
 11
39.04755035685777
 21
-84.30530947017172
 31
0.0
  0
LINE
  5
554
330
4EC
100
AcDbEntity
  8
DRYERJACK 486AL
 62
     7
100
AcDbLine
 10
25.47353218205586
 20
-84.07911184378568
 30
0.0
 11
25.47353218205586
 21
-84.22641803493295
 31
0.0
  0
ARC
  5
555
330
4EC
100
AcDbEntity
  8
DRYERJACK 486AL
 62
     7
100
AcDbCircle
 10
29.27838309619858
 20
-85.44831913804644
 30
0.0
 40
5.842683369639113
100
AcDbArc
 50
22.57336149027426
 51
114.846362794909
  0
ENDBLK
  5
557
330
4EC
100
AcDbEntity
  8
0
100
AcDbBlockEnd
  0
BLOCK
  5
528
330
512
100
AcDbEntity
  8
0
100
AcDbBlockBegin
  2
PD_4198
 70
     0
 10
0.0
 20
0.0
 30
0.0
  3
PD_4198
  1

  0
POLYLINE
  5
513
330
512
100
AcDbEntity
  8
DRYERJACK 486AL
 62
     7
100
AcDb2dPolyline
 66
     1
 10
0.0
 20
0.0
 30
0.0
  0
VERTEX
  5
514
330
513
100
AcDbEntity
  8
DRYERJACK 486AL
 62
     7
100
AcDbVertex
100
AcDb2dVertex
 10
32.40592109762882
 20
-84.36524047020995
 30
0.0
  0
VERTEX
  5
515
330
513
100
AcDbEntity
  8
DRYERJACK 486AL
 62
     7
100
AcDbVertex
100
AcDb2dVertex
 10
32.40592109762882
 20
-87.58607380354329
 30
0.0
  0
VERTEX
  5
516
330
513
100
AcDbEntity
  8
DRYERJACK 486AL
 62
     7
100
AcDbVertex
100
AcDb2dVertex
 10
26.40592109762882
 20
-87.58607380354329
 30
0.0
  0
VERTEX
  5
517
330
513
100
AcDbEntity
  8
DRYERJACK 486AL
 62
     7
100
AcDbVertex
100
AcDb2dVertex
 10
26.40592109762882
 20
-84.36524047020995
 30
0.0
  0
VERTEX
  5
518
330
513
100
AcDbEntity
  8
DRYERJACK 486AL
 62
     7
100
AcDbVertex
100
AcDb2dVertex
 10
32.40592109762882
 20
-84.36524047020995
 30
0.0
  0
SEQEND
  5
519
330
513
100
AcDbEntity
  8
DRYERJACK 486AL
 62
     7
  0
POLYLINE
  5
51A
330
512
100
AcDbEntity
  8
DRYERJACK 486AL
 62
     7
100
AcDb2dPolyline
 66
     1
 10
0.0
 20
0.0
 30
0.0
  0
VERTEX
  5
51B
330
51A
100
AcDbEntity
  8
DRYERJACK 486AL
 62
     7
100
AcDbVertex
100
AcDb2dVertex
 10
32.40592109762882
 20
-82.68190713687662
 30
0.0
  0
VERTEX
  5
51C
330
51A
100
AcDbEntity
  8
DRYERJACK 486AL
 62
     7
100
AcDbVertex
100
AcDb2dVertex
 10
32.40592109762882
 20
-84.14857380354327
 30
0.0
  0
VERTEX
  5
51D
330
51A
100
AcDbEntity
  8
DRYERJACK 486AL
 62
     7
100
AcDbVertex
100
AcDb2dVertex
 10
26.40592109762882
 20
-84.14857380354327
 30
0.0
  0
VERTEX
  5
51E
330
51A
100
AcDbEntity
  8
DRYERJACK 486AL
 62
     7
100
AcDbVertex
100
AcDb2dVertex
 10
26.40592109762882
 20
-82.68190713687662
 30
0.0
  0
VERTEX
  5
51F
330
51A
100
AcDbEntity
  8
DRYERJACK 486AL
 62
     7
100
AcDbVertex
100
AcDb2dVertex
 10
32.40592109762882
 20
-82.68190713687662
 30
0.0
  0
SEQEND
  5
520
330
51A
100
AcDbEntity
  8
DRYERJACK 486AL
 62
     7
  0
LINE
  5
521
330
512
100
AcDbEntity
  8
DRYERJACK 486AL
 62
     7
100
AcDbLine
 10
26.40592109762882
 20
-82.67753592644928
 30
0.0
 11
26.40592109762882
 21
-87.59881925535099
 31
0.0
  0
LINE
  5
522
330
512
100
AcDbEntity
  8
DRYERJACK 486AL
 62
     7
100
AcDbLine
 10
32.40592109762882
 20
-82.67753592644928
 30
0.0
 11
32.40592109762882
 21
-87.59881925535099
 31
0.0
  0
LINE
  5
523
330
512
100
AcDbEntity
  8
DRYERJACK 486AL
 62
     7
100
AcDbLine
 10
26.40592109762882
 20
-82.67753592644928
 30
0.0
 11
27.46997612025907
 21
-82.67753592644928
 31
0.0
  0
LINE
  5
524
330
512
100
AcDbEntity
  8
DRYERJACK 486AL
 62
     7
100
AcDbLine
 10
27.46997612025907
 20
-82.67753592644928
 30
0.0
 11
32.40592109762882
 21
-82.67753592644928
 31
0.0
  0
LINE
  5
525
330
512
100
AcDbEntity
  8
DRYERJACK 486AL
 62
     7
100
AcDbLine
 10
26.40592109762882
 20
-84.16485132231485
 30
0.0
 11
32.40592109762882
 21
-84.16485132231485
 31
0.0
  0
LINE
  5
526
330
512
100
AcDbEntity
  8
DRYERJACK 486AL
 62
     7
100
AcDbLine
 10
26.40592109762882
 20
-84.3601909824839
 30
0.0
 11
32.40592109762882
 21
-84.3601909824839
 31
0.0
  0
LINE
  5
527
330
512
100
AcDbEntity
  8
DRYERJACK 486AL
 62
     7
100
AcDbLine
 10
26.40592109762882
 20
-87.59881925535099
 30
0.0
 11
32.40592109762882
 21
-87.59881925535099
 31
0.0
  0
ENDBLK
  5
529
330
512
100
AcDbEntity
  8
0
100
AcDbBlockEnd
  0
BLOCK
  5
582
330
559
100
AcDbEntity
  8
0
100
AcDbBlockBegin
  2
PD_4199
 70
     0
 10
0.0
 20
0.0
 30
0.0
  3
PD_4199
  1

  0
POLYLINE
  5
55A
330
559
100
AcDbEntity
  8
DRYERJACK 486AL
 62
   253
420
 11184810
100
AcDb2dPolyline
 66
     1
 10
0.0
 20
0.0
 30
0.0
  0
VERTEX
  5
55B
330
55A
100
AcDbEntity
  8
DRYERJACK 486AL
 62
   253
420
 11184810
100
AcDbVertex
100
AcDb2dVertex
 10
69.42916875570808
 20
-70.9964399627722
 30
0.0
  0
VERTEX
  5
55C
330
55A
100
AcDbEntity
  8
DRYERJACK 486AL
 62
   253
420
 11184810
100
AcDbVertex
100
AcDb2dVertex
 10
69.42916875570808
 20
-75.52977329610553
 30
0.0
  0
VERTEX
  5
55D
330
55A
100
AcDbEntity
  8
DRYERJACK 486AL
 62
   253
420
 11184810
100
AcDbVertex
100
AcDb2dVertex
 10
55.53501618658987
 20
-75.52977329610553
 30
0.0
  0
VERTEX
  5
55E
330
55A
100
AcDbEntity
  8
DRYERJACK 486AL
 62
   253
420
 11184810
100
AcDbVertex
100
AcDb2dVertex
 10
55.53501618658987
 20
-75.52977329610553
 30
0.0
  0
VERTEX
  5
55F
330
55A
100
AcDbEntity
  8
DRYERJACK 486AL
 62
   253
420
 11184810
100
AcDbVertex
100
AcDb2dVertex
 10
69.42916875570808
 20
-75.52977329610553
 30
0.0
  0
VERTEX
  5
560
330
55A
100
AcDbEntity
  8
DRYERJACK 486AL
 62
   253
420
 11184810
100
AcDbVertex
100
AcDb2dVertex
 10
69.42916875570808
 20
-84.47977329610552
 30
0.0
  0
VERTEX
  5
561
330
55A
100
AcDbEntity
  8
DRYERJACK 486AL
 62
   253
420
 11184810
100
AcDbVertex
100
AcDb2dVertex
 10
68.44864916845003
 20
-84.47977329610552
 30
0.0
  0
VERTEX
  5
562
330
55A
100
AcDbEntity
  8
DRYERJACK 486AL
 62
   253
420
 11184810
100
AcDbVertex
100
AcDb2dVertex
 10
68.45168285325653
 20
-75.52977329610553
 30
0.0
  0
VERTEX
  5
563
330
55A
100
AcDbEntity
  8
DRYERJACK 486AL
 62
   253
420
 11184810
100
AcDbVertex
100
AcDb2dVertex
 10
69.42916875570808
 20
-75.52977329610553
 30
0.0
  0
VERTEX
  5
564
330
55A
100
AcDbEntity
  8
DRYERJACK 486AL
 62
   253
420
 11184810
100
AcDbVertex
100
AcDb2dVertex
 10
69.42916875570808
 20
-75.52977329610553
 30
0.0
  0
VERTEX
  5
565
330
55A
100
AcDbEntity
  8
DRYERJACK 486AL
 62
   253
420
 11184810
100
AcDbVertex
100
AcDb2dVertex
 10
55.53501618658987
 20
-75.52977329610553
 30
0.0
  0
VERTEX
  5
566
330
55A
100
AcDbEntity
  8
DRYERJACK 486AL
 62
   253
420
 11184810
100
AcDbVertex
100
AcDb2dVertex
 10
55.55594184097404
 20
-84.47977329610552
 30
0.0
  0
VERTEX
  5
567
330
55A
100
AcDbEntity
  8
DRYERJACK 486AL
 62
   253
420
 11184810
100
AcDbVertex
100
AcDb2dVertex
 10
69.42916875570808
 20
-84.47977329610552
 30
0.0
  0
VERTEX
  5
568
330
55A
100
AcDbEntity
  8
DRYERJACK 486AL
 62
   253
420
 11184810
100
AcDbVertex
100
AcDb2dVertex
 10
69.42916875570808
 20
-89.01310662943888
 30
0.0
  0
VERTEX
  5
569
330
55A
100
AcDbEntity
  8
DRYERJACK 486AL
 62
   253
420
 11184810
100
AcDbVertex
100
AcDb2dVertex
 10
51.42916875570809
 20
-89.01310662943888
 30
0.0
  0
VERTEX
  5
56A
330
55A
100
AcDbEntity
  8
DRYERJACK 486AL
 62
   253
420
 11184810
100
AcDbVertex
100
AcDb2dVertex
 10
51.42916875570809
 20
-70.9964399627722
 30
0.0
  0
VERTEX
  5
56B
330
55A
100
AcDbEntity
  8
DRYERJACK 486AL
 62
   253
420
 11184810
100
AcDbVertex
100
AcDb2dVertex
 10
69.42916875570808
 20
-70.9964399627722
 30
0.0
  0
SEQEND
  5
56C
330
55A
100
AcDbEntity
  8
DRYERJACK 486AL
 62
   253
420
 11184810
  0
POLYLINE
  5
56D
330
559
100
AcDbEntity
  8
DRYERJACK 486AL
 62
   253
420
 11184810
100
AcDb2dPolyline
 66
     1
 10
0.0
 20
0.0
 30
0.0
  0
VERTEX
  5
56E
330
56D
100
AcDbEntity
  8
DRYERJACK 486AL
 62
   253
420
 11184810
100
AcDbVertex
100
AcDb2dVertex
 10
68.44864916845003
 20
-75.5464399627722
 30
0.0
  0
VERTEX
  5
56F
330
56D
100
AcDbEntity
  8
DRYERJACK 486AL
 62
   253
420
 11184810
100
AcDbVertex
100
AcDb2dVertex
 10
68.44864916845003
 20
-84.46310662943887
 30
0.0
  0
VERTEX
  5
570
330
56D
100
AcDbEntity
  8
DRYERJACK 486AL
 62
   253
420
 11184810
100
AcDbVertex
100
AcDb2dVertex
 10
55.55594184097404
 20
-84.46310662943887
 30
0.0
  0
VERTEX
  5
571
330
56D
100
AcDbEntity
  8
DRYERJACK 486AL
 62
   253
420
 11184810
100
AcDbVertex
100
AcDb2dVertex
 10
55.55594184097404
 20
-75.5464399627722
 30
0.0
  0
VERTEX
  5
572
330
56D
100
AcDbEntity
  8
DRYERJACK 486AL
 62
   253
420
 11184810
100
AcDbVertex
100
AcDb2dVertex
 10
68.44864916845003
 20
-75.5464399627722
 30
0.0
  0
SEQEND
  5
573
330
56D
100
AcDbEntity
  8
DRYERJACK 486AL
 62
   253
420
 11184810
  0
POLYLINE
  5
574
330
559
100
AcDbEntity
  8
DRYERJACK 486AL
 62
     7
100
AcDb2dPolyline
 66
     1
 10
0.0
 20
0.0
 30
0.0
  0
VERTEX
  5
575
330
574
100
AcDbEntity
  8
DRYERJACK 486AL
 62
     7
100
AcDbVertex
100
AcDb2dVertex
 10
51.42916875570808
 20
-89.03251325362584
 30
0.0
  0
VERTEX
  5
576
330
574
100
AcDbEntity
  8
DRYERJACK 486AL
 62
     7
100
AcDbVertex
100
AcDb2dVertex
 10
51.42916875570808
 20
-70.99055456906427
 30
0.0
  0
VERTEX
  5
577
330
574
100
AcDbEntity
  8
DRYERJACK 486AL
 62
     7
100
AcDbVertex
100
AcDb2dVertex
 10
69.42916875570808
 20
-70.99055456906427
 30
0.0
  0
VERTEX
  5
578
330
574
100
AcDbEntity
  8
DRYERJACK 486AL
 62
     7
100
AcDbVertex
100
AcDb2dVertex
 10
69.42916875570808
 20
-89.03251325362584
 30
0.0
  0
VERTEX
  5
579
330
574
100
AcDbEntity
  8
DRYERJACK 486AL
 62
     7
100
AcDbVertex
100
AcDb2dVertex
 10
51.42916875570808
 20
-89.03251325362584
 30
0.0
  0
SEQEND
  5
57A
330
574
100
AcDbEntity
  8
DRYERJACK 486AL
 62
     7
  0
POLYLINE
  5
57B
330
559
100
AcDbEntity
  8
DRYERJACK 486AL
 62
     7
100
AcDb2dPolyline
 66
     1
 10
0.0
 20
0.0
 30
0.0
  0
VERTEX
  5
57C
330
57B
100
AcDbEntity
  8
DRYERJACK 486AL
 62
     7
100
AcDbVertex
100
AcDb2dVertex
 10
55.55594184097404
 20
-75.54475858867995
 30
0.0
  0
VERTEX
  5
57D
330
57B
100
AcDbEntity
  8
DRYERJACK 486AL
 62
     7
100
AcDbVertex
100
AcDb2dVertex
 10
68.44864916845003
 20
-75.54475858867995
 30
0.0
  0
VERTEX
  5
57E
330
57B
100
AcDbEntity
  8
DRYERJACK 486AL
 62
     7
100
AcDbVertex
100
AcDb2dVertex
 10
68.44864916845003
 20
-84.47830923401014
 30
0.0
  0
VERTEX
  5
57F
330
57B
100
AcDbEntity
  8
DRYERJACK 486AL
 62
     7
100
AcDbVertex
100
AcDb2dVertex
 10
55.55594184097404
 20
-84.47830923401014
 30
0.0
  0
VERTEX
  5
580
330
57B
100
AcDbEntity
  8
DRYERJACK 486AL
 62
     7
100
AcDbVertex
100
AcDb2dVertex
 10
55.55594184097404
 20
-75.54475858867995
 30
0.0
  0
SEQEND
  5
581
330
57B
100
AcDbEntity
  8
DRYERJACK 486AL
 62
     7
  0
ENDBLK
  5
583
330
559
100
AcDbEntity
  8
0
100
AcDbBlockEnd
  0
BLOCK
  5
5C8
330
585
100
AcDbEntity
  8
0
100
AcDbBlockBegin
  2
PD_4200
 70
     0
 10
0.0
 20
0.0
 30
0.0
  3
PD_4200
  1

  0
POLYLINE
  5
586
330
585
100
AcDbEntity
  8
DRYERJACK 486AL
 62
   253
420
 11184810
100
AcDb2dPolyline
 66
     1
 10
0.0
 20
0.0
 30
0.0
  0
VERTEX
  5
587
330
586
100
AcDbEntity
  8
DRYERJACK 486AL
 62
   253
420
 11184810
100
AcDbVertex
100
AcDb2dVertex
 10
25.48551436181152
 20
-105.6207649924828
 30
0.0
  0
VERTEX
  5
588
330
586
100
AcDbEntity
  8
DRYERJACK 486AL
 62
   253
420
 11184810
100
AcDbVertex
100
AcDb2dVertex
 10
25.60830045920864
 20
-104.224384707905
 30
0.0
  0
VERTEX
  5
589
330
586
100
AcDbEntity
  8
DRYERJACK 486AL
 62
   253
420
 11184810
100
AcDbVertex
100
AcDb2dVertex
 10
26.33933748451792
 20
-102.2539388748074
 30
0.0
  0
VERTEX
  5
58A
330
586
100
AcDbEntity
  8
DRYERJACK 486AL
 62
   253
420
 11184810
100
AcDbVertex
100
AcDb2dVertex
 10
27.62149386605173
 20
-100.5941479030838
 30
0.0
  0
VERTEX
  5
58B
330
586
100
AcDbEntity
  8
DRYERJACK 486AL
 62
   253
420
 11184810
100
AcDbVertex
100
AcDb2dVertex
 10
29.53311675062952
 20
-99.21910055496514
 30
0.0
  0
VERTEX
  5
58C
330
586
100
AcDbEntity
  8
DRYERJACK 486AL
 62
   253
420
 11184810
100
AcDbVertex
100
AcDb2dVertex
 10
30.75382988515709
 20
-98.69634804038867
 30
0.0
  0
VERTEX
  5
58D
330
586
100
AcDbEntity
  8
DRYERJACK 486AL
 62
   253
420
 11184810
100
AcDbVertex
100
AcDb2dVertex
 10
32.4649044830665
 20
-98.29088076883616
 30
0.0
  0
VERTEX
  5
58E
330
586
100
AcDbEntity
  8
DRYERJACK 486AL
 62
   253
420
 11184810
100
AcDbVertex
100
AcDb2dVertex
 10
33.99418637320858
 20
-98.20660977651636
 30
0.0
  0
VERTEX
  5
58F
330
586
100
AcDbEntity
  8
DRYERJACK 486AL
 62
   253
420
 11184810
100
AcDbVertex
100
AcDb2dVertex
 10
35.53364770143364
 20
-98.37621122698455
 30
0.0
  0
VERTEX
  5
590
330
586
100
AcDbEntity
  8
DRYERJACK 486AL
 62
   253
420
 11184810
100
AcDbVertex
100
AcDb2dVertex
 10
36.82621967271067
 20
-98.72898312365308
 30
0.0
  0
VERTEX
  5
591
330
586
100
AcDbEntity
  8
DRYERJACK 486AL
 62
   253
420
 11184810
100
AcDbVertex
100
AcDb2dVertex
 10
38.12648296463705
 20
-99.43686307590828
 30
0.0
  0
VERTEX
  5
592
330
586
100
AcDbEntity
  8
DRYERJACK 486AL
 62
   253
420
 11184810
100
AcDbVertex
100
AcDb2dVertex
 10
37.94075747616959
 20
-99.98613526106055
 30
0.0
  0
VERTEX
  5
593
330
586
100
AcDbEntity
  8
DRYERJACK 486AL
 62
   253
420
 11184810
100
AcDbVertex
100
AcDb2dVertex
 10
37.68024476058299
 20
-100.279018675437
 30
0.0
  0
VERTEX
  5
594
330
586
100
AcDbEntity
  8
DRYERJACK 486AL
 62
   253
420
 11184810
100
AcDbVertex
100
AcDb2dVertex
 10
37.28911383931347
 20
-100.5636125260733
 30
0.0
  0
VERTEX
  5
595
330
586
100
AcDbEntity
  8
DRYERJACK 486AL
 62
   253
420
 11184810
100
AcDbVertex
100
AcDb2dVertex
 10
36.79802556166072
 20
-100.7882342006395
 30
0.0
  0
VERTEX
  5
596
330
586
100
AcDbEntity
  8
DRYERJACK 486AL
 62
   253
420
 11184810
100
AcDbVertex
100
AcDb2dVertex
 10
36.41490957773516
 20
-101.0363882162464
 30
0.0
  0
VERTEX
  5
597
330
586
100
AcDbEntity
  8
DRYERJACK 486AL
 62
   253
420
 11184810
100
AcDbVertex
100
AcDb2dVertex
 10
36.05764430744396
 20
-101.3988651782478
 30
0.0
  0
VERTEX
  5
598
330
586
100
AcDbEntity
  8
DRYERJACK 486AL
 62
   253
420
 11184810
100
AcDbVertex
100
AcDb2dVertex
 10
35.79347535865124
 20
-101.8615132732406
 30
0.0
  0
VERTEX
  5
599
330
586
100
AcDbEntity
  8
DRYERJACK 486AL
 62
   253
420
 11184810
100
AcDbVertex
100
AcDb2dVertex
 10
34.39608091011031
 20
-105.6996564277216
 30
0.0
  0
VERTEX
  5
59A
330
586
100
AcDbEntity
  8
DRYERJACK 486AL
 62
   253
420
 11184810
100
AcDbVertex
100
AcDb2dVertex
 10
25.48551436181152
 20
-105.6207649924828
 30
0.0
  0
SEQEND
  5
59B
330
586
100
AcDbEntity
  8
DRYERJACK 486AL
 62
   253
420
 11184810
  0
INSERT
  5
5C7
330
585
100
AcDbEntity
  8
DRYERJACK 486AL
100
AcDbBlockReference
  2
PD_4201
 10
0.0
 20
0.0
 30
0.0
  0
ENDBLK
  5
5C9
330
585
100
AcDbEntity
  8
0
100
AcDbBlockEnd
  0
BLOCK
  5
5C5
330
59C
100
AcDbEntity
  8
0
100
AcDbBlockBegin
  2
PD_4201
 70
     0
 10
0.0
 20
0.0
 30
0.0
  3
PD_4201
  1

  0
POLYLINE
  5
59D
330
59C
100
AcDbEntity
  8
DRYERJACK 486AL
 62
     7
100
AcDb2dPolyline
 66
     1
 10
0.0
 20
0.0
 30
0.0
  0
VERTEX
  5
59E
330
59D
100
AcDbEntity
  8
DRYERJACK 486AL
 62
     7
100
AcDbVertex
100
AcDb2dVertex
 10
25.48551436181153
 20
-105.4734588013355
 30
0.0
  0
VERTEX
  5
59F
330
59D
100
AcDbEntity
  8
DRYERJACK 486AL
 62
     7
100
AcDbVertex
100
AcDb2dVertex
 10
25.53246255703143
 20
-104.6993084000875
 30
0.0
  0
VERTEX
  5
5A0
330
59D
100
AcDbEntity
  8
DRYERJACK 486AL
 62
     7
100
AcDbVertex
100
AcDb2dVertex
 10
25.6727733014895
 20
-103.9339607521405
 30
0.0
  0
VERTEX
  5
5A1
330
59D
100
AcDbEntity
  8
DRYERJACK 486AL
 62
     7
100
AcDbVertex
100
AcDb2dVertex
 10
25.90485114181267
 20
-103.1861185159488
 30
0.0
  0
VERTEX
  5
5A2
330
59D
100
AcDbEntity
  8
DRYERJACK 486AL
 62
     7
100
AcDbVertex
100
AcDb2dVertex
 10
26.22605715412814
 20
-102.4642852984377
 30
0.0
  0
VERTEX
  5
5A3
330
59D
100
AcDbEntity
  8
DRYERJACK 486AL
 62
     7
100
AcDbVertex
100
AcDb2dVertex
 10
26.63273895088867
 20
-101.7766689617074
 30
0.0
  0
VERTEX
  5
5A4
330
59D
100
AcDbEntity
  8
DRYERJACK 486AL
 62
     7
100
AcDbVertex
100
AcDb2dVertex
 10
27.12027221164811
 20
-101.1310882926087
 30
0.0
  0
VERTEX
  5
5A5
330
59D
100
AcDbEntity
  8
DRYERJACK 486AL
 62
     7
100
AcDbVertex
100
AcDb2dVertex
 10
27.68311326554669
 20
-100.5348840964384
 30
0.0
  0
VERTEX
  5
5A6
330
59D
100
AcDbEntity
  8
DRYERJACK 486AL
 62
     7
100
AcDbVertex
100
AcDb2dVertex
 10
28.3148621275981
 20
-99.99483572569387
 30
0.0
  0
VERTEX
  5
5A7
330
59D
100
AcDbEntity
  8
DRYERJACK 486AL
 62
     7
100
AcDbVertex
100
AcDb2dVertex
 10
29.00833527200186
 20
-99.51708399302655
 30
0.0
  0
VERTEX
  5
5A8
330
59D
100
AcDbEntity
  8
DRYERJACK 486AL
 62
     7
100
AcDbVertex
100
AcDb2dVertex
 10
29.75564731498603
 20
-99.10706134494174
 30
0.0
  0
VERTEX
  5
5A9
330
59D
100
AcDbEntity
  8
DRYERJACK 486AL
 62
     7
100
AcDbVertex
100
AcDb2dVertex
 10
30.54830067837636
 20
-98.76943009022735
 30
0.0
  0
VERTEX
  5
5AA
330
59D
100
AcDbEntity
  8
DRYERJACK 486AL
 62
     7
100
AcDbVertex
100
AcDb2dVertex
 10
31.37728221434024
 20
-98.5080293855087
 30
0.0
  0
VERTEX
  5
5AB
330
59D
100
AcDbEntity
  8
DRYERJACK 486AL
 62
     7
100
AcDbVertex
100
AcDb2dVertex
 10
32.23316569259943
 20
-98.3258315807486
 30
0.0
  0
VERTEX
  5
5AC
330
59D
100
AcDbEntity
  8
DRYERJACK 486AL
 62
     7
100
AcDbVertex
100
AcDb2dVertex
 10
33.10621898474406
 20
-98.2249084210817
 30
0.0
  0
VERTEX
  5
5AD
330
59D
100
AcDbEntity
  8
DRYERJACK 486AL
 62
     7
100
AcDbVertex
100
AcDb2dVertex
 10
33.98651472687047
 20
-98.20640748929739
 30
0.0
  0
VERTEX
  5
5AE
330
59D
100
AcDbEntity
  8
DRYERJACK 486AL
 62
     7
100
AcDbVertex
100
AcDb2dVertex
 10
34.86404320221386
 20
-98.27053915684047
 30
0.0
  0
VERTEX
  5
5AF
330
59D
100
AcDbEntity
  8
DRYERJACK 486AL
 62
     7
100
AcDbVertex
100
AcDb2dVertex
 10
35.72882616020358
 20
-98.4165741917073
 30
0.0
  0
VERTEX
  5
5B0
330
59D
100
AcDbEntity
  8
DRYERJACK 486AL
 62
     7
100
AcDbVertex
100
AcDb2dVertex
 10
36.57103027772075
 20
-98.6428520504387
 30
0.0
  0
VERTEX
  5
5B1
330
59D
100
AcDbEntity
  8
DRYERJACK 486AL
 62
     7
100
AcDbVertex
100
AcDb2dVertex
 10
37.38107897240668
 20
-98.94679975992159
 30
0.0
  0
VERTEX
  5
5B2
330
59D
100
AcDbEntity
  8
DRYERJACK 486AL
 62
     7
100
AcDbVertex
100
AcDb2dVertex
 10
38.1497612966088
 20
-99.3249611742977
 30
0.0
  0
VERTEX
  5
5B3
330
59D
100
AcDbEntity
  8
DRYERJACK 486AL
 62
     7
100
AcDbVertex
100
AcDb2dVertex
 10
38.14976129660884
 20
-99.32496117429771
 30
0.0
  0
SEQEND
  5
5B4
330
59D
100
AcDbEntity
  8
DRYERJACK 486AL
 62
     7
  0
LINE
  5
5B5
330
59C
100
AcDbEntity
  8
DRYERJACK 486AL
 62
     7
100
AcDbLine
 10
38.14976129660884
 20
-99.32496117429771
 30
0.0
 11
38.04618594160087
 21
-99.82286107534868
 31
0.0
  0
LINE
  5
5B6
330
59C
100
AcDbEntity
  8
DRYERJACK 486AL
 62
     7
100
AcDbLine
 10
34.4017602745684
 20
-105.5917212070685
 30
0.0
 11
35.8075792818913
 21
-101.8237105886468
 31
0.0
  0
POLYLINE
  5
5B7
330
59C
100
AcDbEntity
  8
DRYERJACK 486AL
 62
     7
100
AcDb2dPolyline
 66
     1
 10
0.0
 20
0.0
 30
0.0
  0
VERTEX
  5
5B8
330
5B7
100
AcDbEntity
  8
DRYERJACK 486AL
 62
     7
100
AcDbVertex
100
AcDb2dVertex
 10
38.04618594160088
 20
-99.8228610753487
 30
0.0
  0
VERTEX
  5
5B9
330
5B7
100
AcDbEntity
  8
DRYERJACK 486AL
 62
     7
100
AcDbVertex
100
AcDb2dVertex
 10
37.75395774436881
 20
-100.2075075014193
 30
0.0
  0
VERTEX
  5
5BA
330
5B7
100
AcDbEntity
  8
DRYERJACK 486AL
 62
     7
100
AcDbVertex
100
AcDb2dVertex
 10
37.36482507297601
 20
-100.5185902912311
 30
0.0
  0
VERTEX
  5
5BB
330
5B7
100
AcDbEntity
  8
DRYERJACK 486AL
 62
     7
100
AcDbVertex
100
AcDb2dVertex
 10
36.90184822893598
 20
-100.7376744393063
 30
0.0
  0
SEQEND
  5
5BC
330
5B7
100
AcDbEntity
  8
DRYERJACK 486AL
 62
     7
  0
POLYLINE
  5
5BD
330
59C
100
AcDbEntity
  8
DRYERJACK 486AL
 62
     7
100
AcDb2dPolyline
 66
     1
 10
0.0
 20
0.0
 30
0.0
  0
VERTEX
  5
5BE
330
5BD
100
AcDbEntity
  8
DRYERJACK 486AL
 62
     7
100
AcDbVertex
100
AcDb2dVertex
 10
35.8075792818913
 20
-101.8237105886468
 30
0.0
  0
VERTEX
  5
5BF
330
5BD
100
AcDbEntity
  8
DRYERJACK 486AL
 62
     7
100
AcDbVertex
100
AcDb2dVertex
 10
36.06743173814723
 20
-101.3862696059322
 30
0.0
  0
VERTEX
  5
5C0
330
5BD
100
AcDbEntity
  8
DRYERJACK 486AL
 62
     7
100
AcDbVertex
100
AcDb2dVertex
 10
36.43952168977823
 20
-101.0169790952501
 30
0.0
  0
VERTEX
  5
5C1
330
5BD
100
AcDbEntity
  8
DRYERJACK 486AL
 62
     7
100
AcDbVertex
100
AcDb2dVertex
 10
36.90184822893598
 20
-100.7376744393063
 30
0.0
  0
SEQEND
  5
5C2
330
5BD
100
AcDbEntity
  8
DRYERJACK 486AL
 62
     7
  0
LINE
  5
5C3
330
59C
100
AcDbEntity
  8
DRYERJACK 486AL
 62
     7
100
AcDbLine
 10
21.19577391176106
 20
-105.6996564277216
 30
0.0
 11
39.05953253661344
 21
-105.6996564277216
 31
0.0
  0
LINE
  5
5C4
330
59C
100
AcDbEntity
  8
DRYERJACK 486AL
 62
     7
100
AcDbLine
 10
25.48551436181152
 20
-105.4734588013355
 30
0.0
 11
25.48551436181152
 21
-105.6207649924828
 31
0.0
  0
ENDBLK
  5
5C6
330
59C
100
AcDbEntity
  8
0
100
AcDbBlockEnd
  0
BLOCK
  5
5FA
330
5E0
100
AcDbEntity
  8
0
100
AcDbBlockBegin
  2
PD_4202
 70
     0
 10
0.0
 20
0.0
 30
0.0
  3
PD_4202
  1

  0
POLYLINE
  5
5E1
330
5E0
100
AcDbEntity
  8
DRYERJACK 486AL
 62
     7
100
AcDb2dPolyline
 66
     1
 10
0.0
 20
0.0
 30
0.0
  0
VERTEX
  5
5E2
330
5E1
100
AcDbEntity
  8
DRYERJACK 486AL
 62
     7
100
AcDbVertex
100
AcDb2dVertex
 10
55.87389968020245
 20
-98.16333583297565
 30
0.0
  0
VERTEX
  5
5E3
330
5E1
100
AcDbEntity
  8
DRYERJACK 486AL
 62
     7
100
AcDbVertex
100
AcDb2dVertex
 10
64.7824132984886
 20
-98.16333583297565
 30
0.0
  0
VERTEX
  5
5E4
330
5E1
100
AcDbEntity
  8
DRYERJACK 486AL
 62
     7
100
AcDbVertex
100
AcDb2dVertex
 10
64.7824132984886
 20
-99.49746618457374
 30
0.0
  0
VERTEX
  5
5E5
330
5E1
100
AcDbEntity
  8
DRYERJACK 486AL
 62
     7
100
AcDbVertex
100
AcDb2dVertex
 10
55.87389968020245
 20
-99.49746618457374
 30
0.0
  0
VERTEX
  5
5E6
330
5E1
100
AcDbEntity
  8
DRYERJACK 486AL
 62
     7
100
AcDbVertex
100
AcDb2dVertex
 10
55.87389968020245
 20
-98.16333583297565
 30
0.0
  0
SEQEND
  5
5E7
330
5E1
100
AcDbEntity
  8
DRYERJACK 486AL
 62
     7
  0
LINE
  5
5E8
330
5E0
100
AcDbEntity
  8
DRYERJACK 486AL
 62
     7
100
AcDbLine
 10
51.36938123400279
 20
-105.7746399956092
 30
0.0
 11
69.36938229402583
 21
-105.7746399956092
 31
0.0
  0
POLYLINE
  5
5E9
330
5E0
100
AcDbEntity
  8
DRYERJACK 486AL
 62
   253
420
 11184810
100
AcDb2dPolyline
 66
     1
 10
0.0
 20
0.0
 30
0.0
  0
VERTEX
  5
5EA
330
5E9
100
AcDbEntity
  8
DRYERJACK 486AL
 62
   253
420
 11184810
100
AcDbVertex
100
AcDb2dVertex
 10
64.77227887015971
 20
-94.98971092320956
 30
0.0
  0
VERTEX
  5
5EB
330
5E9
100
AcDbEntity
  8
DRYERJACK 486AL
 62
   253
420
 11184810
100
AcDbVertex
100
AcDb2dVertex
 10
64.77227887015971
 20
-105.3128824698001
 30
0.0
  0
VERTEX
  5
5EC
330
5E9
100
AcDbEntity
  8
DRYERJACK 486AL
 62
   253
420
 11184810
100
AcDbVertex
100
AcDb2dVertex
 10
55.87389968020245
 20
-105.3128824698001
 30
0.0
  0
VERTEX
  5
5ED
330
5E9
100
AcDbEntity
  8
DRYERJACK 486AL
 62
   253
420
 11184810
100
AcDbVertex
100
AcDb2dVertex
 10
55.87389968020245
 20
-94.98971092320956
 30
0.0
  0
VERTEX
  5
5EE
330
5E9
100
AcDbEntity
  8
DRYERJACK 486AL
 62
   253
420
 11184810
100
AcDbVertex
100
AcDb2dVertex
 10
64.77227887015971
 20
-94.98971092320956
 30
0.0
  0
SEQEND
  5
5EF
330
5E9
100
AcDbEntity
  8
DRYERJACK 486AL
 62
   253
420
 11184810
  0
POLYLINE
  5
5F0
330
5E0
100
AcDbEntity
  8
DRYERJACK 486AL
 62
     7
100
AcDb2dPolyline
 66
     1
 10
0.0
 20
0.0
 30
0.0
  0
VERTEX
  5
5F1
330
5F0
100
AcDbEntity
  8
DRYERJACK 486AL
 62
     7
100
AcDbVertex
100
AcDb2dVertex
 10
55.87389968020245
 20
-99.43539078271722
 30
0.0
  0
VERTEX
  5
5F2
330
5F0
100
AcDbEntity
  8
DRYERJACK 486AL
 62
     7
100
AcDbVertex
100
AcDb2dVertex
 10
64.77227887015971
 20
-99.43539078271722
 30
0.0
  0
VERTEX
  5
5F3
330
5F0
100
AcDbEntity
  8
DRYERJACK 486AL
 62
     7
100
AcDbVertex
100
AcDb2dVertex
 10
64.77227887015971
 20
-105.7746399956092
 30
0.0
  0
VERTEX
  5
5F4
330
5F0
100
AcDbEntity
  8
DRYERJACK 486AL
 62
     7
100
AcDbVertex
100
AcDb2dVertex
 10
55.87389968020245
 20
-105.7746399956092
 30
0.0
  0
VERTEX
  5
5F5
330
5F0
100
AcDbEntity
  8
DRYERJACK 486AL
 62
     7
100
AcDbVertex
100
AcDb2dVertex
 10
55.87389968020245
 20
-99.43539078271722
 30
0.0
  0
SEQEND
  5
5F6
330
5F0
100
AcDbEntity
  8
DRYERJACK 486AL
 62
     7
  0
LINE
  5
5F7
330
5E0
100
AcDbEntity
  8
DRYERJACK 486AL
 62
     7
100
AcDbLine
 10
55.87389968020245
 20
-105.5019451462194
 30
0.0
 11
64.77227887015971
 21
-105.5019451462194
 31
0.0
  0
LINE
  5
5F8
330
5E0
100
AcDbEntity
  8
DRYERJACK 486AL
 62
     7
100
AcDbLine
 10
55.87389968020245
 20
-104.5019451462194
 30
0.0
 11
64.77227887015971
 21
-104.5019451462194
 31
0.0
  0
LINE
  5
5F9
330
5E0
100
AcDbEntity
  8
DRYERJACK 486AL
 62
     7
100
AcDbLine
 10
55.87389968020245
 20
-100.1686093019015
 30
0.0
 11
64.61624311195465
 21
-100.1686093019015
 31
0.0
  0
ENDBLK
  5
5FB
330
5E0
100
AcDbEntity
  8
0
100
AcDbBlockEnd
  0
BLOCK
  5
6B3
330
6B1
100
AcDbEntity
  8
0
100
AcDbBlockBegin
  2
*Paper_Space32
 70
     0
 10
0.0
 20
0.0
 30
0.0
  3
*Paper_Space32
  1

  0
VIEWPORT
  5
6B5
330
6B1
100
AcDbEntity
  8
0
100
AcDbViewport
 10
5.25
 20
4.0
 30
0.0
 40
11.638
 41
8.993
 68
     1
 69
     1
 12
5.25
 22
4.0
 13
0.0
 23
0.0
 14
0.5
 24
0.5
 15
0.5
 25
0.5
 16
0.0
 26
0.0
 36
1.0
 17
0.0
 27
0.0
 37
0.0
 42
50.0
 43
0.0
 44
0.0
 45
8.993
 50
0.0
 51
0.0
 72
   100
 90
   557152
  1

281
     0
 71
     1
 74
     0
110
0.0
120
0.0
130
0.0
111
1.0
121
0.0
131
0.0
112
0.0
122
1.0
132
0.0
 79
     0
146
0.0
170
     0
 61
     5
292
     1
282
     1
141
0.0
142
0.0
 63
   256
  0
VIEWPORT
  5
6B6
330
6B1
100
AcDbEntity
  8
0
100
AcDbViewport
 10
3.4999999
 20
5.25
 30
0.0
 40
576.0
 41
734.0
 68
     2
 69
     2
 12
0.0
 22
0.0
 13
0.0
 23
0.0
 14
0.5
 24
0.5
 15
0.5
 25
0.5
 16
0.0
 26
0.0
 36
1.0
 17
48.0
 27
-61.16666666666666
 37
0.0
 42
50.0
 43
0.0
 44
0.0
 45
8808.0
 50
0.0
 51
0.0
 72
   100
 90
   557152
  1

281
     0
 71
     1
 74
     0
110
0.0
120
0.0
130
0.0
111
1.0
121
0.0
131
0.0
112
0.0
122
1.0
132
0.0
 79
     0
146
0.0
170
     0
 61
     5
292
     1
282
     1
141
0.0
142
0.0
 63
   256
  0
ENDBLK
  5
6B4
330
6B1
100
AcDbEntity
  8
0
100
AcDbBlockEnd
  0
BLOCK
  5
605
330
603
100
AcDbEntity
  8
0
100
AcDbBlockBegin
  2
*Paper_Space33
 70
     0
 10
0.0
 20
0.0
 30
0.0
  3
*Paper_Space33
  1

  0
VIEWPORT
  5
607
330
603
100
AcDbEntity
  8
0
100
AcDbViewport
 10
5.25
 20
4.0
 30
0.0
 40
11.638
 41
8.993
 68
     1
 69
     1
 12
5.25
 22
4.0
 13
0.0
 23
0.0
 14
0.5
 24
0.5
 15
0.5
 25
0.5
 16
0.0
 26
0.0
 36
1.0
 17
0.0
 27
0.0
 37
0.0
 42
50.0
 43
0.0
 44
0.0
 45
8.993
 50
0.0
 51
0.0
 72
   100
 90
   557152
  1

281
     0
 71
     1
 74
     0
110
0.0
120
0.0
130
0.0
111
1.0
121
0.0
131
0.0
112
0.0
122
1.0
132
0.0
 79
     0
146
0.0
170
     0
 61
     5
292
     1
282
     1
141
0.0
142
0.0
 63
   256
  0
VIEWPORT
  5
608
330
603
100
AcDbEntity
  8
0
100
AcDbViewport
 10
3.4999999
 20
5.25
 30
0.0
 40
576.0
 41
734.0
 68
     2
 69
     2
 12
0.0
 22
0.0
 13
0.0
 23
0.0
 14
0.5
 24
0.5
 15
0.5
 25
0.5
 16
0.0
 26
0.0
 36
1.0
 17
48.0
 27
-61.16666666666666
 37
0.0
 42
50.0
 43
0.0
 44
0.0
 45
8808.0
 50
0.0
 51
0.0
 72
   100
 90
   557152
  1

281
     0
 71
     1
 74
     0
110
0.0
120
0.0
130
0.0
111
1.0
121
0.0
131
0.0
112
0.0
122
1.0
132
0.0
 79
     0
146
0.0
170
     0
 61
     5
292
     1
282
     1
141
0.0
142
0.0
 63
   256
  0
ENDBLK
  5
606
330
603
100
AcDbEntity
  8
0
100
AcDbBlockEnd
  0
BLOCK
  5
60B
330
609
100
AcDbEntity
  8
0
100
AcDbBlockBegin
  2
*Paper_Space34
 70
     0
 10
0.0
 20
0.0
 30
0.0
  3
*Paper_Space34
  1

  0
VIEWPORT
  5
60D
330
609
100
AcDbEntity
  8
0
100
AcDbViewport
 10
5.25
 20
4.0
 30
0.0
 40
11.638
 41
8.993
 68
     1
 69
     1
 12
5.25
 22
4.0
 13
0.0
 23
0.0
 14
0.5
 24
0.5
 15
0.5
 25
0.5
 16
0.0
 26
0.0
 36
1.0
 17
0.0
 27
0.0
 37
0.0
 42
50.0
 43
0.0
 44
0.0
 45
8.993
 50
0.0
 51
0.0
 72
   100
 90
   557152
  1

281
     0
 71
     1
 74
     0
110
0.0
120
0.0
130
0.0
111
1.0
121
0.0
131
0.0
112
0.0
122
1.0
132
0.0
 79
     0
146
0.0
170
     0
 61
     5
292
     1
282
     1
141
0.0
142
0.0
 63
   256
  0
VIEWPORT
  5
60E
330
609
100
AcDbEntity
  8
0
100
AcDbViewport
 10
3.4999999
 20
5.25
 30
0.0
 40
576.0
 41
734.0
 68
     2
 69
     2
 12
0.0
 22
0.0
 13
0.0
 23
0.0
 14
0.5
 24
0.5
 15
0.5
 25
0.5
 16
0.0
 26
0.0
 36
1.0
 17
48.0
 27
-61.16666666666666
 37
0.0
 42
50.0
 43
0.0
 44
0.0
 45
8808.0
 50
0.0
 51
0.0
 72
   100
 90
   557152
  1

281
     0
 71
     1
 74
     0
110
0.0
120
0.0
130
0.0
111
1.0
121
0.0
131
0.0
112
0.0
122
1.0
132
0.0
 79
     0
146
0.0
170
     0
 61
     5
292
     1
282
     1
141
0.0
142
0.0
 63
   256
  0
ENDBLK
  5
60C
330
609
100
AcDbEntity
  8
0
100
AcDbBlockEnd
  0
BLOCK
  5
611
330
60F
100
AcDbEntity
  8
0
100
AcDbBlockBegin
  2
*Paper_Space35
 70
     0
 10
0.0
 20
0.0
 30
0.0
  3
*Paper_Space35
  1

  0
VIEWPORT
  5
613
330
60F
100
AcDbEntity
  8
0
100
AcDbViewport
 10
5.25
 20
4.0
 30
0.0
 40
11.638
 41
8.993
 68
     1
 69
     1
 12
5.25
 22
4.0
 13
0.0
 23
0.0
 14
0.5
 24
0.5
 15
0.5
 25
0.5
 16
0.0
 26
0.0
 36
1.0
 17
0.0
 27
0.0
 37
0.0
 42
50.0
 43
0.0
 44
0.0
 45
8.993
 50
0.0
 51
0.0
 72
   100
 90
   557152
  1

281
     0
 71
     1
 74
     0
110
0.0
120
0.0
130
0.0
111
1.0
121
0.0
131
0.0
112
0.0
122
1.0
132
0.0
 79
     0
146
0.0
170
     0
 61
     5
292
     1
282
     1
141
0.0
142
0.0
 63
   256
  0
VIEWPORT
  5
614
330
60F
100
AcDbEntity
  8
0
100
AcDbViewport
 10
3.4999999
 20
5.25
 30
0.0
 40
576.0
 41
734.0
 68
     2
 69
     2
 12
0.0
 22
0.0
 13
0.0
 23
0.0
 14
0.5
 24
0.5
 15
0.5
 25
0.5
 16
0.0
 26
0.0
 36
1.0
 17
48.0
 27
-61.16666666666666
 37
0.0
 42
50.0
 43
0.0
 44
0.0
 45
8808.0
 50
0.0
 51
0.0
 72
   100
 90
   557152
  1

281
     0
 71
     1
 74
     0
110
0.0
120
0.0
130
0.0
111
1.0
121
0.0
131
0.0
112
0.0
122
1.0
132
0.0
 79
     0
146
0.0
170
     0
 61
     5
292
     1
282
     1
141
0.0
142
0.0
 63
   256
  0
ENDBLK
  5
612
330
60F
100
AcDbEntity
  8
0
100
AcDbBlockEnd
  0
BLOCK
  5
617
330
615
100
AcDbEntity
  8
0
100
AcDbBlockBegin
  2
*Paper_Space36
 70
     0
 10
0.0
 20
0.0
 30
0.0
  3
*Paper_Space36
  1

  0
VIEWPORT
  5
619
330
615
100
AcDbEntity
  8
0
100
AcDbViewport
 10
5.25
 20
4.0
 30
0.0
 40
11.638
 41
8.993
 68
     1
 69
     1
 12
5.25
 22
4.0
 13
0.0
 23
0.0
 14
0.5
 24
0.5
 15
0.5
 25
0.5
 16
0.0
 26
0.0
 36
1.0
 17
0.0
 27
0.0
 37
0.0
 42
50.0
 43
0.0
 44
0.0
 45
8.993
 50
0.0
 51
0.0
 72
   100
 90
   557152
  1

281
     0
 71
     1
 74
     0
110
0.0
120
0.0
130
0.0
111
1.0
121
0.0
131
0.0
112
0.0
122
1.0
132
0.0
 79
     0
146
0.0
170
     0
 61
     5
292
     1
282
     1
141
0.0
142
0.0
 63
   256
  0
VIEWPORT
  5
61A
330
615
100
AcDbEntity
  8
0
100
AcDbViewport
 10
3.4999999
 20
5.25
 30
0.0
 40
576.0
 41
734.0
 68
     2
 69
     2
 12
0.0
 22
0.0
 13
0.0
 23
0.0
 14
0.5
 24
0.5
 15
0.5
 25
0.5
 16
0.0
 26
0.0
 36
1.0
 17
48.0
 27
-61.16666666666666
 37
0.0
 42
50.0
 43
0.0
 44
0.0
 45
8808.0
 50
0.0
 51
0.0
 72
   100
 90
   557152
  1

281
     0
 71
     1
 74
     0
110
0.0
120
0.0
130
0.0
111
1.0
121
0.0
131
0.0
112
0.0
122
1.0
132
0.0
 79
     0
146
0.0
170
     0
 61
     5
292
     1
282
     1
141
0.0
142
0.0
 63
   256
  0
ENDBLK
  5
618
330
615
100
AcDbEntity
  8
0
100
AcDbBlockEnd
  0
BLOCK
  5
61D
330
61B
100
AcDbEntity
  8
0
100
AcDbBlockBegin
  2
*Paper_Space37
 70
     0
 10
0.0
 20
0.0
 30
0.0
  3
*Paper_Space37
  1

  0
VIEWPORT
  5
61F
330
61B
100
AcDbEntity
  8
0
100
AcDbViewport
 10
5.25
 20
4.0
 30
0.0
 40
11.638
 41
8.993
 68
     1
 69
     1
 12
5.25
 22
4.0
 13
0.0
 23
0.0
 14
0.5
 24
0.5
 15
0.5
 25
0.5
 16
0.0
 26
0.0
 36
1.0
 17
0.0
 27
0.0
 37
0.0
 42
50.0
 43
0.0
 44
0.0
 45
8.993
 50
0.0
 51
0.0
 72
   100
 90
   557152
  1

281
     0
 71
     1
 74
     0
110
0.0
120
0.0
130
0.0
111
1.0
121
0.0
131
0.0
112
0.0
122
1.0
132
0.0
 79
     0
146
0.0
170
     0
 61
     5
292
     1
282
     1
141
0.0
142
0.0
 63
   256
  0
VIEWPORT
  5
620
330
61B
100
AcDbEntity
  8
0
100
AcDbViewport
 10
3.4999999
 20
5.25
 30
0.0
 40
576.0
 41
734.0
 68
     2
 69
     2
 12
0.0
 22
0.0
 13
0.0
 23
0.0
 14
0.5
 24
0.5
 15
0.5
 25
0.5
 16
0.0
 26
0.0
 36
1.0
 17
48.0
 27
-61.16666666666666
 37
0.0
 42
50.0
 43
0.0
 44
0.0
 45
8808.0
 50
0.0
 51
0.0
 72
   100
 90
   557152
  1

281
     0
 71
     1
 74
     0
110
0.0
120
0.0
130
0.0
111
1.0
121
0.0
131
0.0
112
0.0
122
1.0
132
0.0
 79
     0
146
0.0
170
     0
 61
     5
292
     1
282
     1
141
0.0
142
0.0
 63
   256
  0
ENDBLK
  5
61E
330
61B
100
AcDbEntity
  8
0
100
AcDbBlockEnd
  0
BLOCK
  5
623
330
621
100
AcDbEntity
  8
0
100
AcDbBlockBegin
  2
*Paper_Space38
 70
     0
 10
0.0
 20
0.0
 30
0.0
  3
*Paper_Space38
  1

  0
VIEWPORT
  5
625
330
621
100
AcDbEntity
  8
0
100
AcDbViewport
 10
5.25
 20
4.0
 30
0.0
 40
11.638
 41
8.993
 68
     1
 69
     1
 12
5.25
 22
4.0
 13
0.0
 23
0.0
 14
0.5
 24
0.5
 15
0.5
 25
0.5
 16
0.0
 26
0.0
 36
1.0
 17
0.0
 27
0.0
 37
0.0
 42
50.0
 43
0.0
 44
0.0
 45
8.993
 50
0.0
 51
0.0
 72
   100
 90
   557152
  1

281
     0
 71
     1
 74
     0
110
0.0
120
0.0
130
0.0
111
1.0
121
0.0
131
0.0
112
0.0
122
1.0
132
0.0
 79
     0
146
0.0
170
     0
 61
     5
292
     1
282
     1
141
0.0
142
0.0
 63
   256
  0
VIEWPORT
  5
626
330
621
100
AcDbEntity
  8
0
100
AcDbViewport
 10
3.4999999
 20
5.25
 30
0.0
 40
576.0
 41
734.0
 68
     2
 69
     2
 12
0.0
 22
0.0
 13
0.0
 23
0.0
 14
0.5
 24
0.5
 15
0.5
 25
0.5
 16
0.0
 26
0.0
 36
1.0
 17
48.0
 27
-61.16666666666666
 37
0.0
 42
50.0
 43
0.0
 44
0.0
 45
8808.0
 50
0.0
 51
0.0
 72
   100
 90
   557152
  1

281
     0
 71
     1
 74
     0
110
0.0
120
0.0
130
0.0
111
1.0
121
0.0
131
0.0
112
0.0
122
1.0
132
0.0
 79
     0
146
0.0
170
     0
 61
     5
292
     1
282
     1
141
0.0
142
0.0
 63
   256
  0
ENDBLK
  5
624
330
621
100
AcDbEntity
  8
0
100
AcDbBlockEnd
  0
BLOCK
  5
629
330
627
100
AcDbEntity
  8
0
100
AcDbBlockBegin
  2
*Paper_Space39
 70
     0
 10
0.0
 20
0.0
 30
0.0
  3
*Paper_Space39
  1

  0
VIEWPORT
  5
62B
330
627
100
AcDbEntity
  8
0
100
AcDbViewport
 10
5.25
 20
4.0
 30
0.0
 40
11.638
 41
8.993
 68
     1
 69
     1
 12
5.25
 22
4.0
 13
0.0
 23
0.0
 14
0.5
 24
0.5
 15
0.5
 25
0.5
 16
0.0
 26
0.0
 36
1.0
 17
0.0
 27
0.0
 37
0.0
 42
50.0
 43
0.0
 44
0.0
 45
8.993
 50
0.0
 51
0.0
 72
   100
 90
   557152
  1

281
     0
 71
     1
 74
     0
110
0.0
120
0.0
130
0.0
111
1.0
121
0.0
131
0.0
112
0.0
122
1.0
132
0.0
 79
     0
146
0.0
170
     0
 61
     5
292
     1
282
     1
141
0.0
142
0.0
 63
   256
  0
VIEWPORT
  5
62C
330
627
100
AcDbEntity
  8
0
100
AcDbViewport
 10
3.4999999
 20
5.25
 30
0.0
 40
576.0
 41
734.0
 68
     2
 69
     2
 12
0.0
 22
0.0
 13
0.0
 23
0.0
 14
0.5
 24
0.5
 15
0.5
 25
0.5
 16
0.0
 26
0.0
 36
1.0
 17
48.0
 27
-61.16666666666666
 37
0.0
 42
50.0
 43
0.0
 44
0.0
 45
8808.0
 50
0.0
 51
0.0
 72
   100
 90
   557152
  1

281
     0
 71
     1
 74
     0
110
0.0
120
0.0
130
0.0
111
1.0
121
0.0
131
0.0
112
0.0
122
1.0
132
0.0
 79
     0
146
0.0
170
     0
 61
     5
292
     1
282
     1
141
0.0
142
0.0
 63
   256
  0
ENDBLK
  5
62A
330
627
100
AcDbEntity
  8
0
100
AcDbBlockEnd
  0
BLOCK
  5
62F
330
62D
100
AcDbEntity
  8
0
100
AcDbBlockBegin
  2
*Paper_Space40
 70
     0
 10
0.0
 20
0.0
 30
0.0
  3
*Paper_Space40
  1

  0
VIEWPORT
  5
631
330
62D
100
AcDbEntity
  8
0
100
AcDbViewport
 10
5.25
 20
4.0
 30
0.0
 40
11.638
 41
8.993
 68
     1
 69
     1
 12
5.25
 22
4.0
 13
0.0
 23
0.0
 14
0.5
 24
0.5
 15
0.5
 25
0.5
 16
0.0
 26
0.0
 36
1.0
 17
0.0
 27
0.0
 37
0.0
 42
50.0
 43
0.0
 44
0.0
 45
8.993
 50
0.0
 51
0.0
 72
   100
 90
   557152
  1

281
     0
 71
     1
 74
     0
110
0.0
120
0.0
130
0.0
111
1.0
121
0.0
131
0.0
112
0.0
122
1.0
132
0.0
 79
     0
146
0.0
170
     0
 61
     5
292
     1
282
     1
141
0.0
142
0.0
 63
   256
  0
VIEWPORT
  5
632
330
62D
100
AcDbEntity
  8
0
100
AcDbViewport
 10
3.4999999
 20
5.25
 30
0.0
 40
576.0
 41
734.0
 68
     2
 69
     2
 12
0.0
 22
0.0
 13
0.0
 23
0.0
 14
0.5
 24
0.5
 15
0.5
 25
0.5
 16
0.0
 26
0.0
 36
1.0
 17
48.0
 27
-61.16666666666666
 37
0.0
 42
50.0
 43
0.0
 44
0.0
 45
8808.0
 50
0.0
 51
0.0
 72
   100
 90
   557152
  1

281
     0
 71
     1
 74
     0
110
0.0
120
0.0
130
0.0
111
1.0
121
0.0
131
0.0
112
0.0
122
1.0
132
0.0
 79
     0
146
0.0
170
     0
 61
     5
292
     1
282
     1
141
0.0
142
0.0
 63
   256
  0
ENDBLK
  5
630
330
62D
100
AcDbEntity
  8
0
100
AcDbBlockEnd
  0
BLOCK
  5
635
330
633
100
AcDbEntity
  8
0
100
AcDbBlockBegin
  2
*Paper_Space41
 70
     0
 10
0.0
 20
0.0
 30
0.0
  3
*Paper_Space41
  1

  0
VIEWPORT
  5
637
330
633
100
AcDbEntity
  8
0
100
AcDbViewport
 10
5.25
 20
4.0
 30
0.0
 40
11.638
 41
8.993
 68
     1
 69
     1
 12
5.25
 22
4.0
 13
0.0
 23
0.0
 14
0.5
 24
0.5
 15
0.5
 25
0.5
 16
0.0
 26
0.0
 36
1.0
 17
0.0
 27
0.0
 37
0.0
 42
50.0
 43
0.0
 44
0.0
 45
8.993
 50
0.0
 51
0.0
 72
   100
 90
   557152
  1

281
     0
 71
     1
 74
     0
110
0.0
120
0.0
130
0.0
111
1.0
121
0.0
131
0.0
112
0.0
122
1.0
132
0.0
 79
     0
146
0.0
170
     0
 61
     5
292
     1
282
     1
141
0.0
142
0.0
 63
   256
  0
VIEWPORT
  5
638
330
633
100
AcDbEntity
  8
0
100
AcDbViewport
 10
3.4999999
 20
5.25
 30
0.0
 40
576.0
 41
734.0
 68
     2
 69
     2
 12
0.0
 22
0.0
 13
0.0
 23
0.0
 14
0.5
 24
0.5
 15
0.5
 25
0.5
 16
0.0
 26
0.0
 36
1.0
 17
48.0
 27
-61.16666666666666
 37
0.0
 42
50.0
 43
0.0
 44
0.0
 45
8808.0
 50
0.0
 51
0.0
 72
   100
 90
   557152
  1

281
     0
 71
     1
 74
     0
110
0.0
120
0.0
130
0.0
111
1.0
121
0.0
131
0.0
112
0.0
122
1.0
132
0.0
 79
     0
146
0.0
170
     0
 61
     5
292
     1
282
     1
141
0.0
142
0.0
 63
   256
  0
ENDBLK
  5
636
330
633
100
AcDbEntity
  8
0
100
AcDbBlockEnd
  0
BLOCK
  5
63B
330
639
100
AcDbEntity
  8
0
100
AcDbBlockBegin
  2
*Paper_Space42
 70
     0
 10
0.0
 20
0.0
 30
0.0
  3
*Paper_Space42
  1

  0
VIEWPORT
  5
63D
330
639
100
AcDbEntity
  8
0
100
AcDbViewport
 10
5.25
 20
4.0
 30
0.0
 40
11.638
 41
8.993
 68
     1
 69
     1
 12
5.25
 22
4.0
 13
0.0
 23
0.0
 14
0.5
 24
0.5
 15
0.5
 25
0.5
 16
0.0
 26
0.0
 36
1.0
 17
0.0
 27
0.0
 37
0.0
 42
50.0
 43
0.0
 44
0.0
 45
8.993
 50
0.0
 51
0.0
 72
   100
 90
   557152
  1

281
     0
 71
     1
 74
     0
110
0.0
120
0.0
130
0.0
111
1.0
121
0.0
131
0.0
112
0.0
122
1.0
132
0.0
 79
     0
146
0.0
170
     0
 61
     5
292
     1
282
     1
141
0.0
142
0.0
 63
   256
  0
VIEWPORT
  5
63E
330
639
100
AcDbEntity
  8
0
100
AcDbViewport
 10
3.4999999
 20
5.25
 30
0.0
 40
576.0
 41
734.0
 68
     2
 69
     2
 12
0.0
 22
0.0
 13
0.0
 23
0.0
 14
0.5
 24
0.5
 15
0.5
 25
0.5
 16
0.0
 26
0.0
 36
1.0
 17
48.0
 27
-61.16666666666666
 37
0.0
 42
50.0
 43
0.0
 44
0.0
 45
8808.0
 50
0.0
 51
0.0
 72
   100
 90
   557152
  1

281
     0
 71
     1
 74
     0
110
0.0
120
0.0
130
0.0
111
1.0
121
0.0
131
0.0
112
0.0
122
1.0
132
0.0
 79
     0
146
0.0
170
     0
 61
     5
292
     1
282
     1
141
0.0
142
0.0
 63
   256
  0
ENDBLK
  5
63C
330
639
100
AcDbEntity
  8
0
100
AcDbBlockEnd
  0
BLOCK
  5
641
330
63F
100
AcDbEntity
  8
0
100
AcDbBlockBegin
  2
*Paper_Space43
 70
     0
 10
0.0
 20
0.0
 30
0.0
  3
*Paper_Space43
  1

  0
VIEWPORT
  5
643
330
63F
100
AcDbEntity
  8
0
100
AcDbViewport
 10
5.25
 20
4.0
 30
0.0
 40
11.638
 41
8.993
 68
     1
 69
     1
 12
5.25
 22
4.0
 13
0.0
 23
0.0
 14
0.5
 24
0.5
 15
0.5
 25
0.5
 16
0.0
 26
0.0
 36
1.0
 17
0.0
 27
0.0
 37
0.0
 42
50.0
 43
0.0
 44
0.0
 45
8.993
 50
0.0
 51
0.0
 72
   100
 90
   557152
  1

281
     0
 71
     1
 74
     0
110
0.0
120
0.0
130
0.0
111
1.0
121
0.0
131
0.0
112
0.0
122
1.0
132
0.0
 79
     0
146
0.0
170
     0
 61
     5
292
     1
282
     1
141
0.0
142
0.0
 63
   256
  0
VIEWPORT
  5
644
330
63F
100
AcDbEntity
  8
0
100
AcDbViewport
 10
3.4999999
 20
5.25
 30
0.0
 40
576.0
 41
734.0
 68
     2
 69
     2
 12
0.0
 22
0.0
 13
0.0
 23
0.0
 14
0.5
 24
0.5
 15
0.5
 25
0.5
 16
0.0
 26
0.0
 36
1.0
 17
48.0
 27
-61.16666666666666
 37
0.0
 42
50.0
 43
0.0
 44
0.0
 45
8808.0
 50
0.0
 51
0.0
 72
   100
 90
   557152
  1

281
     0
 71
     1
 74
     0
110
0.0
120
0.0
130
0.0
111
1.0
121
0.0
131
0.0
112
0.0
122
1.0
132
0.0
 79
     0
146
0.0
170
     0
 61
     5
292
     1
282
     1
141
0.0
142
0.0
 63
   256
  0
ENDBLK
  5
642
330
63F
100
AcDbEntity
  8
0
100
AcDbBlockEnd
  0
BLOCK
  5
647
330
645
100
AcDbEntity
  8
0
100
AcDbBlockBegin
  2
*Paper_Space44
 70
     0
 10
0.0
 20
0.0
 30
0.0
  3
*Paper_Space44
  1

  0
VIEWPORT
  5
649
330
645
100
AcDbEntity
  8
0
100
AcDbViewport
 10
5.25
 20
4.0
 30
0.0
 40
11.638
 41
8.993
 68
     1
 69
     1
 12
5.25
 22
4.0
 13
0.0
 23
0.0
 14
0.5
 24
0.5
 15
0.5
 25
0.5
 16
0.0
 26
0.0
 36
1.0
 17
0.0
 27
0.0
 37
0.0
 42
50.0
 43
0.0
 44
0.0
 45
8.993
 50
0.0
 51
0.0
 72
   100
 90
   557152
  1

281
     0
 71
     1
 74
     0
110
0.0
120
0.0
130
0.0
111
1.0
121
0.0
131
0.0
112
0.0
122
1.0
132
0.0
 79
     0
146
0.0
170
     0
 61
     5
292
     1
282
     1
141
0.0
142
0.0
 63
   256
  0
VIEWPORT
  5
64A
330
645
100
AcDbEntity
  8
0
100
AcDbViewport
 10
3.4999999
 20
5.25
 30
0.0
 40
576.0
 41
734.0
 68
     2
 69
     2
 12
0.0
 22
0.0
 13
0.0
 23
0.0
 14
0.5
 24
0.5
 15
0.5
 25
0.5
 16
0.0
 26
0.0
 36
1.0
 17
48.0
 27
-61.16666666666666
 37
0.0
 42
50.0
 43
0.0
 44
0.0
 45
8808.0
 50
0.0
 51
0.0
 72
   100
 90
   557152
  1

281
     0
 71
     1
 74
     0
110
0.0
120
0.0
130
0.0
111
1.0
121
0.0
131
0.0
112
0.0
122
1.0
132
0.0
 79
     0
146
0.0
170
     0
 61
     5
292
     1
282
     1
141
0.0
142
0.0
 63
   256
  0
ENDBLK
  5
648
330
645
100
AcDbEntity
  8
0
100
AcDbBlockEnd
  0
BLOCK
  5
64D
330
64B
100
AcDbEntity
  8
0
100
AcDbBlockBegin
  2
*Paper_Space45
 70
     0
 10
0.0
 20
0.0
 30
0.0
  3
*Paper_Space45
  1

  0
VIEWPORT
  5
64F
330
64B
100
AcDbEntity
  8
0
100
AcDbViewport
 10
5.25
 20
4.0
 30
0.0
 40
11.638
 41
8.993
 68
     1
 69
     1
 12
5.25
 22
4.0
 13
0.0
 23
0.0
 14
0.5
 24
0.5
 15
0.5
 25
0.5
 16
0.0
 26
0.0
 36
1.0
 17
0.0
 27
0.0
 37
0.0
 42
50.0
 43
0.0
 44
0.0
 45
8.993
 50
0.0
 51
0.0
 72
   100
 90
   557152
  1

281
     0
 71
     1
 74
     0
110
0.0
120
0.0
130
0.0
111
1.0
121
0.0
131
0.0
112
0.0
122
1.0
132
0.0
 79
     0
146
0.0
170
     0
 61
     5
292
     1
282
     1
141
0.0
142
0.0
 63
   256
  0
VIEWPORT
  5
650
330
64B
100
AcDbEntity
  8
0
100
AcDbViewport
 10
3.4999999
 20
5.25
 30
0.0
 40
576.0
 41
734.0
 68
     2
 69
     2
 12
0.0
 22
0.0
 13
0.0
 23
0.0
 14
0.5
 24
0.5
 15
0.5
 25
0.5
 16
0.0
 26
0.0
 36
1.0
 17
48.0
 27
-61.16666666666666
 37
0.0
 42
50.0
 43
0.0
 44
0.0
 45
8808.0
 50
0.0
 51
0.0
 72
   100
 90
   557152
  1

281
     0
 71
     1
 74
     0
110
0.0
120
0.0
130
0.0
111
1.0
121
0.0
131
0.0
112
0.0
122
1.0
132
0.0
 79
     0
146
0.0
170
     0
 61
     5
292
     1
282
     1
141
0.0
142
0.0
 63
   256
  0
ENDBLK
  5
64E
330
64B
100
AcDbEntity
  8
0
100
AcDbBlockEnd
  0
BLOCK
  5
653
330
651
100
AcDbEntity
  8
0
100
AcDbBlockBegin
  2
*Paper_Space46
 70
     0
 10
0.0
 20
0.0
 30
0.0
  3
*Paper_Space46
  1

  0
VIEWPORT
  5
655
330
651
100
AcDbEntity
  8
0
100
AcDbViewport
 10
5.25
 20
4.0
 30
0.0
 40
11.638
 41
8.993
 68
     1
 69
     1
 12
5.25
 22
4.0
 13
0.0
 23
0.0
 14
0.5
 24
0.5
 15
0.5
 25
0.5
 16
0.0
 26
0.0
 36
1.0
 17
0.0
 27
0.0
 37
0.0
 42
50.0
 43
0.0
 44
0.0
 45
8.993
 50
0.0
 51
0.0
 72
   100
 90
   557152
  1

281
     0
 71
     1
 74
     0
110
0.0
120
0.0
130
0.0
111
1.0
121
0.0
131
0.0
112
0.0
122
1.0
132
0.0
 79
     0
146
0.0
170
     0
 61
     5
292
     1
282
     1
141
0.0
142
0.0
 63
   256
  0
VIEWPORT
  5
656
330
651
100
AcDbEntity
  8
0
100
AcDbViewport
 10
3.4999999
 20
5.25
 30
0.0
 40
576.0
 41
734.0
 68
     2
 69
     2
 12
0.0
 22
0.0
 13
0.0
 23
0.0
 14
0.5
 24
0.5
 15
0.5
 25
0.5
 16
0.0
 26
0.0
 36
1.0
 17
48.0
 27
-61.16666666666666
 37
0.0
 42
50.0
 43
0.0
 44
0.0
 45
8808.0
 50
0.0
 51
0.0
 72
   100
 90
   557152
  1

281
     0
 71
     1
 74
     0
110
0.0
120
0.0
130
0.0
111
1.0
121
0.0
131
0.0
112
0.0
122
1.0
132
0.0
 79
     0
146
0.0
170
     0
 61
     5
292
     1
282
     1
141
0.0
142
0.0
 63
   256
  0
ENDBLK
  5
654
330
651
100
AcDbEntity
  8
0
100
AcDbBlockEnd
  0
BLOCK
  5
659
330
657
100
AcDbEntity
  8
0
100
AcDbBlockBegin
  2
*Paper_Space47
 70
     0
 10
0.0
 20
0.0
 30
0.0
  3
*Paper_Space47
  1

  0
VIEWPORT
  5
65B
330
657
100
AcDbEntity
  8
0
100
AcDbViewport
 10
5.25
 20
4.0
 30
0.0
 40
11.638
 41
8.993
 68
     1
 69
     1
 12
5.25
 22
4.0
 13
0.0
 23
0.0
 14
0.5
 24
0.5
 15
0.5
 25
0.5
 16
0.0
 26
0.0
 36
1.0
 17
0.0
 27
0.0
 37
0.0
 42
50.0
 43
0.0
 44
0.0
 45
8.993
 50
0.0
 51
0.0
 72
   100
 90
   557152
  1

281
     0
 71
     1
 74
     0
110
0.0
120
0.0
130
0.0
111
1.0
121
0.0
131
0.0
112
0.0
122
1.0
132
0.0
 79
     0
146
0.0
170
     0
 61
     5
292
     1
282
     1
141
0.0
142
0.0
 63
   256
  0
VIEWPORT
  5
65C
330
657
100
AcDbEntity
  8
0
100
AcDbViewport
 10
3.4999999
 20
5.25
 30
0.0
 40
576.0
 41
734.0
 68
     2
 69
     2
 12
0.0
 22
0.0
 13
0.0
 23
0.0
 14
0.5
 24
0.5
 15
0.5
 25
0.5
 16
0.0
 26
0.0
 36
1.0
 17
48.0
 27
-61.16666666666666
 37
0.0
 42
50.0
 43
0.0
 44
0.0
 45
8808.0
 50
0.0
 51
0.0
 72
   100
 90
   557152
  1

281
     0
 71
     1
 74
     0
110
0.0
120
0.0
130
0.0
111
1.0
121
0.0
131
0.0
112
0.0
122
1.0
132
0.0
 79
     0
146
0.0
170
     0
 61
     5
292
     1
282
     1
141
0.0
142
0.0
 63
   256
  0
ENDBLK
  5
65A
330
657
100
AcDbEntity
  8
0
100
AcDbBlockEnd
  0
BLOCK
  5
65F
330
65D
100
AcDbEntity
  8
0
100
AcDbBlockBegin
  2
*Paper_Space48
 70
     0
 10
0.0
 20
0.0
 30
0.0
  3
*Paper_Space48
  1

  0
VIEWPORT
  5
661
330
65D
100
AcDbEntity
  8
0
100
AcDbViewport
 10
5.25
 20
4.0
 30
0.0
 40
11.638
 41
8.993
 68
     1
 69
     1
 12
5.25
 22
4.0
 13
0.0
 23
0.0
 14
0.5
 24
0.5
 15
0.5
 25
0.5
 16
0.0
 26
0.0
 36
1.0
 17
0.0
 27
0.0
 37
0.0
 42
50.0
 43
0.0
 44
0.0
 45
8.993
 50
0.0
 51
0.0
 72
   100
 90
   557152
  1

281
     0
 71
     1
 74
     0
110
0.0
120
0.0
130
0.0
111
1.0
121
0.0
131
0.0
112
0.0
122
1.0
132
0.0
 79
     0
146
0.0
170
     0
 61
     5
292
     1
282
     1
141
0.0
142
0.0
 63
   256
  0
VIEWPORT
  5
662
330
65D
100
AcDbEntity
  8
0
100
AcDbViewport
 10
3.4999999
 20
5.25
 30
0.0
 40
576.0
 41
734.0
 68
     2
 69
     2
 12
0.0
 22
0.0
 13
0.0
 23
0.0
 14
0.5
 24
0.5
 15
0.5
 25
0.5
 16
0.0
 26
0.0
 36
1.0
 17
48.0
 27
-61.16666666666666
 37
0.0
 42
50.0
 43
0.0
 44
0.0
 45
8808.0
 50
0.0
 51
0.0
 72
   100
 90
   557152
  1

281
     0
 71
     1
 74
     0
110
0.0
120
0.0
130
0.0
111
1.0
121
0.0
131
0.0
112
0.0
122
1.0
132
0.0
 79
     0
146
0.0
170
     0
 61
     5
292
     1
282
     1
141
0.0
142
0.0
 63
   256
  0
ENDBLK
  5
660
330
65D
100
AcDbEntity
  8
0
100
AcDbBlockEnd
  0
BLOCK
  5
665
330
663
100
AcDbEntity
  8
0
100
AcDbBlockBegin
  2
*Paper_Space49
 70
     0
 10
0.0
 20
0.0
 30
0.0
  3
*Paper_Space49
  1

  0
VIEWPORT
  5
667
330
663
100
AcDbEntity
  8
0
100
AcDbViewport
 10
5.25
 20
4.0
 30
0.0
 40
11.638
 41
8.993
 68
     1
 69
     1
 12
5.25
 22
4.0
 13
0.0
 23
0.0
 14
0.5
 24
0.5
 15
0.5
 25
0.5
 16
0.0
 26
0.0
 36
1.0
 17
0.0
 27
0.0
 37
0.0
 42
50.0
 43
0.0
 44
0.0
 45
8.993
 50
0.0
 51
0.0
 72
   100
 90
   557152
  1

281
     0
 71
     1
 74
     0
110
0.0
120
0.0
130
0.0
111
1.0
121
0.0
131
0.0
112
0.0
122
1.0
132
0.0
 79
     0
146
0.0
170
     0
 61
     5
292
     1
282
     1
141
0.0
142
0.0
 63
   256
  0
VIEWPORT
  5
668
330
663
100
AcDbEntity
  8
0
100
AcDbViewport
 10
3.4999999
 20
5.25
 30
0.0
 40
576.0
 41
734.0
 68
     2
 69
     2
 12
0.0
 22
0.0
 13
0.0
 23
0.0
 14
0.5
 24
0.5
 15
0.5
 25
0.5
 16
0.0
 26
0.0
 36
1.0
 17
48.0
 27
-61.16666666666666
 37
0.0
 42
50.0
 43
0.0
 44
0.0
 45
8808.0
 50
0.0
 51
0.0
 72
   100
 90
   557152
  1

281
     0
 71
     1
 74
     0
110
0.0
120
0.0
130
0.0
111
1.0
121
0.0
131
0.0
112
0.0
122
1.0
132
0.0
 79
     0
146
0.0
170
     0
 61
     5
292
     1
282
     1
141
0.0
142
0.0
 63
   256
  0
ENDBLK
  5
666
330
663
100
AcDbEntity
  8
0
100
AcDbBlockEnd
  0
BLOCK
  5
66B
330
669
100
AcDbEntity
  8
0
100
AcDbBlockBegin
  2
*Paper_Space50
 70
     0
 10
0.0
 20
0.0
 30
0.0
  3
*Paper_Space50
  1

  0
VIEWPORT
  5
66D
330
669
100
AcDbEntity
  8
0
100
AcDbViewport
 10
5.25
 20
4.0
 30
0.0
 40
11.638
 41
8.993
 68
     1
 69
     1
 12
5.25
 22
4.0
 13
0.0
 23
0.0
 14
0.5
 24
0.5
 15
0.5
 25
0.5
 16
0.0
 26
0.0
 36
1.0
 17
0.0
 27
0.0
 37
0.0
 42
50.0
 43
0.0
 44
0.0
 45
8.993
 50
0.0
 51
0.0
 72
   100
 90
   557152
  1

281
     0
 71
     1
 74
     0
110
0.0
120
0.0
130
0.0
111
1.0
121
0.0
131
0.0
112
0.0
122
1.0
132
0.0
 79
     0
146
0.0
170
     0
 61
     5
292
     1
282
     1
141
0.0
142
0.0
 63
   256
  0
VIEWPORT
  5
66E
330
669
100
AcDbEntity
  8
0
100
AcDbViewport
 10
3.4999999
 20
5.25
 30
0.0
 40
576.0
 41
734.0
 68
     2
 69
     2
 12
0.0
 22
0.0
 13
0.0
 23
0.0
 14
0.5
 24
0.5
 15
0.5
 25
0.5
 16
0.0
 26
0.0
 36
1.0
 17
48.0
 27
-61.16666666666666
 37
0.0
 42
50.0
 43
0.0
 44
0.0
 45
8808.0
 50
0.0
 51
0.0
 72
   100
 90
   557152
  1

281
     0
 71
     1
 74
     0
110
0.0
120
0.0
130
0.0
111
1.0
121
0.0
131
0.0
112
0.0
122
1.0
132
0.0
 79
     0
146
0.0
170
     0
 61
     5
292
     1
282
     1
141
0.0
142
0.0
 63
   256
  0
ENDBLK
  5
66C
330
669
100
AcDbEntity
  8
0
100
AcDbBlockEnd
  0
BLOCK
  5
671
330
66F
100
AcDbEntity
  8
0
100
AcDbBlockBegin
  2
*Paper_Space51
 70
     0
 10
0.0
 20
0.0
 30
0.0
  3
*Paper_Space51
  1

  0
VIEWPORT
  5
673
330
66F
100
AcDbEntity
  8
0
100
AcDbViewport
 10
5.25
 20
4.0
 30
0.0
 40
11.638
 41
8.993
 68
     1
 69
     1
 12
5.25
 22
4.0
 13
0.0
 23
0.0
 14
0.5
 24
0.5
 15
0.5
 25
0.5
 16
0.0
 26
0.0
 36
1.0
 17
0.0
 27
0.0
 37
0.0
 42
50.0
 43
0.0
 44
0.0
 45
8.993
 50
0.0
 51
0.0
 72
   100
 90
   557152
  1

281
     0
 71
     1
 74
     0
110
0.0
120
0.0
130
0.0
111
1.0
121
0.0
131
0.0
112
0.0
122
1.0
132
0.0
 79
     0
146
0.0
170
     0
 61
     5
292
     1
282
     1
141
0.0
142
0.0
 63
   256
  0
VIEWPORT
  5
674
330
66F
100
AcDbEntity
  8
0
100
AcDbViewport
 10
3.4999999
 20
5.25
 30
0.0
 40
576.0
 41
734.0
 68
     2
 69
     2
 12
0.0
 22
0.0
 13
0.0
 23
0.0
 14
0.5
 24
0.5
 15
0.5
 25
0.5
 16
0.0
 26
0.0
 36
1.0
 17
48.0
 27
-61.16666666666666
 37
0.0
 42
50.0
 43
0.0
 44
0.0
 45
8808.0
 50
0.0
 51
0.0
 72
   100
 90
   557152
  1

281
     0
 71
     1
 74
     0
110
0.0
120
0.0
130
0.0
111
1.0
121
0.0
131
0.0
112
0.0
122
1.0
132
0.0
 79
     0
146
0.0
170
     0
 61
     5
292
     1
282
     1
141
0.0
142
0.0
 63
   256
  0
ENDBLK
  5
672
330
66F
100
AcDbEntity
  8
0
100
AcDbBlockEnd
  0
BLOCK
  5
677
330
675
100
AcDbEntity
  8
0
100
AcDbBlockBegin
  2
*Paper_Space52
 70
     0
 10
0.0
 20
0.0
 30
0.0
  3
*Paper_Space52
  1

  0
VIEWPORT
  5
679
330
675
100
AcDbEntity
  8
0
100
AcDbViewport
 10
5.25
 20
4.0
 30
0.0
 40
11.638
 41
8.993
 68
     1
 69
     1
 12
5.25
 22
4.0
 13
0.0
 23
0.0
 14
0.5
 24
0.5
 15
0.5
 25
0.5
 16
0.0
 26
0.0
 36
1.0
 17
0.0
 27
0.0
 37
0.0
 42
50.0
 43
0.0
 44
0.0
 45
8.993
 50
0.0
 51
0.0
 72
   100
 90
   557152
  1

281
     0
 71
     1
 74
     0
110
0.0
120
0.0
130
0.0
111
1.0
121
0.0
131
0.0
112
0.0
122
1.0
132
0.0
 79
     0
146
0.0
170
     0
 61
     5
292
     1
282
     1
141
0.0
142
0.0
 63
   256
  0
VIEWPORT
  5
67A
330
675
100
AcDbEntity
  8
0
100
AcDbViewport
 10
3.4999999
 20
5.25
 30
0.0
 40
576.0
 41
734.0
 68
     2
 69
     2
 12
0.0
 22
0.0
 13
0.0
 23
0.0
 14
0.5
 24
0.5
 15
0.5
 25
0.5
 16
0.0
 26
0.0
 36
1.0
 17
48.0
 27
-61.16666666666666
 37
0.0
 42
50.0
 43
0.0
 44
0.0
 45
8808.0
 50
0.0
 51
0.0
 72
   100
 90
   557152
  1

281
     0
 71
     1
 74
     0
110
0.0
120
0.0
130
0.0
111
1.0
121
0.0
131
0.0
112
0.0
122
1.0
132
0.0
 79
     0
146
0.0
170
     0
 61
     5
292
     1
282
     1
141
0.0
142
0.0
 63
   256
  0
ENDBLK
  5
678
330
675
100
AcDbEntity
  8
0
100
AcDbBlockEnd
  0
BLOCK
  5
67D
330
67B
100
AcDbEntity
  8
0
100
AcDbBlockBegin
  2
*Paper_Space53
 70
     0
 10
0.0
 20
0.0
 30
0.0
  3
*Paper_Space53
  1

  0
VIEWPORT
  5
67F
330
67B
100
AcDbEntity
  8
0
100
AcDbViewport
 10
5.25
 20
4.0
 30
0.0
 40
11.638
 41
8.993
 68
     1
 69
     1
 12
5.25
 22
4.0
 13
0.0
 23
0.0
 14
0.5
 24
0.5
 15
0.5
 25
0.5
 16
0.0
 26
0.0
 36
1.0
 17
0.0
 27
0.0
 37
0.0
 42
50.0
 43
0.0
 44
0.0
 45
8.993
 50
0.0
 51
0.0
 72
   100
 90
   557152
  1

281
     0
 71
     1
 74
     0
110
0.0
120
0.0
130
0.0
111
1.0
121
0.0
131
0.0
112
0.0
122
1.0
132
0.0
 79
     0
146
0.0
170
     0
 61
     5
292
     1
282
     1
141
0.0
142
0.0
 63
   256
  0
VIEWPORT
  5
680
330
67B
100
AcDbEntity
  8
0
100
AcDbViewport
 10
3.4999999
 20
5.25
 30
0.0
 40
576.0
 41
734.0
 68
     2
 69
     2
 12
0.0
 22
0.0
 13
0.0
 23
0.0
 14
0.5
 24
0.5
 15
0.5
 25
0.5
 16
0.0
 26
0.0
 36
1.0
 17
48.0
 27
-61.16666666666666
 37
0.0
 42
50.0
 43
0.0
 44
0.0
 45
8808.0
 50
0.0
 51
0.0
 72
   100
 90
   557152
  1

281
     0
 71
     1
 74
     0
110
0.0
120
0.0
130
0.0
111
1.0
121
0.0
131
0.0
112
0.0
122
1.0
132
0.0
 79
     0
146
0.0
170
     0
 61
     5
292
     1
282
     1
141
0.0
142
0.0
 63
   256
  0
ENDBLK
  5
67E
330
67B
100
AcDbEntity
  8
0
100
AcDbBlockEnd
  0
BLOCK
  5
683
330
681
100
AcDbEntity
  8
0
100
AcDbBlockBegin
  2
*Paper_Space54
 70
     0
 10
0.0
 20
0.0
 30
0.0
  3
*Paper_Space54
  1

  0
VIEWPORT
  5
685
330
681
100
AcDbEntity
  8
0
100
AcDbViewport
 10
5.25
 20
4.0
 30
0.0
 40
11.638
 41
8.993
 68
     1
 69
     1
 12
5.25
 22
4.0
 13
0.0
 23
0.0
 14
0.5
 24
0.5
 15
0.5
 25
0.5
 16
0.0
 26
0.0
 36
1.0
 17
0.0
 27
0.0
 37
0.0
 42
50.0
 43
0.0
 44
0.0
 45
8.993
 50
0.0
 51
0.0
 72
   100
 90
   557152
  1

281
     0
 71
     1
 74
     0
110
0.0
120
0.0
130
0.0
111
1.0
121
0.0
131
0.0
112
0.0
122
1.0
132
0.0
 79
     0
146
0.0
170
     0
 61
     5
292
     1
282
     1
141
0.0
142
0.0
 63
   256
  0
VIEWPORT
  5
686
330
681
100
AcDbEntity
  8
0
100
AcDbViewport
 10
3.4999999
 20
5.25
 30
0.0
 40
576.0
 41
734.0
 68
     2
 69
     2
 12
0.0
 22
0.0
 13
0.0
 23
0.0
 14
0.5
 24
0.5
 15
0.5
 25
0.5
 16
0.0
 26
0.0
 36
1.0
 17
48.0
 27
-61.16666666666666
 37
0.0
 42
50.0
 43
0.0
 44
0.0
 45
8808.0
 50
0.0
 51
0.0
 72
   100
 90
   557152
  1

281
     0
 71
     1
 74
     0
110
0.0
120
0.0
130
0.0
111
1.0
121
0.0
131
0.0
112
0.0
122
1.0
132
0.0
 79
     0
146
0.0
170
     0
 61
     5
292
     1
282
     1
141
0.0
142
0.0
 63
   256
  0
ENDBLK
  5
684
330
681
100
AcDbEntity
  8
0
100
AcDbBlockEnd
  0
BLOCK
  5
689
330
687
100
AcDbEntity
  8
0
100
AcDbBlockBegin
  2
*Paper_Space55
 70
     0
 10
0.0
 20
0.0
 30
0.0
  3
*Paper_Space55
  1

  0
VIEWPORT
  5
68B
330
687
100
AcDbEntity
  8
0
100
AcDbViewport
 10
5.25
 20
4.0
 30
0.0
 40
11.638
 41
8.993
 68
     1
 69
     1
 12
5.25
 22
4.0
 13
0.0
 23
0.0
 14
0.5
 24
0.5
 15
0.5
 25
0.5
 16
0.0
 26
0.0
 36
1.0
 17
0.0
 27
0.0
 37
0.0
 42
50.0
 43
0.0
 44
0.0
 45
8.993
 50
0.0
 51
0.0
 72
   100
 90
   557152
  1

281
     0
 71
     1
 74
     0
110
0.0
120
0.0
130
0.0
111
1.0
121
0.0
131
0.0
112
0.0
122
1.0
132
0.0
 79
     0
146
0.0
170
     0
 61
     5
292
     1
282
     1
141
0.0
142
0.0
 63
   256
  0
VIEWPORT
  5
68C
330
687
100
AcDbEntity
  8
0
100
AcDbViewport
 10
3.4999999
 20
5.25
 30
0.0
 40
576.0
 41
734.0
 68
     2
 69
     2
 12
0.0
 22
0.0
 13
0.0
 23
0.0
 14
0.5
 24
0.5
 15
0.5
 25
0.5
 16
0.0
 26
0.0
 36
1.0
 17
48.0
 27
-61.16666666666666
 37
0.0
 42
50.0
 43
0.0
 44
0.0
 45
8808.0
 50
0.0
 51
0.0
 72
   100
 90
   557152
  1

281
     0
 71
     1
 74
     0
110
0.0
120
0.0
130
0.0
111
1.0
121
0.0
131
0.0
112
0.0
122
1.0
132
0.0
 79
     0
146
0.0
170
     0
 61
     5
292
     1
282
     1
141
0.0
142
0.0
 63
   256
  0
ENDBLK
  5
68A
330
687
100
AcDbEntity
  8
0
100
AcDbBlockEnd
  0
BLOCK
  5
68F
330
68D
100
AcDbEntity
  8
0
100
AcDbBlockBegin
  2
*Paper_Space56
 70
     0
 10
0.0
 20
0.0
 30
0.0
  3
*Paper_Space56
  1

  0
VIEWPORT
  5
691
330
68D
100
AcDbEntity
  8
0
100
AcDbViewport
 10
5.25
 20
4.0
 30
0.0
 40
11.638
 41
8.993
 68
     1
 69
     1
 12
5.25
 22
4.0
 13
0.0
 23
0.0
 14
0.5
 24
0.5
 15
0.5
 25
0.5
 16
0.0
 26
0.0
 36
1.0
 17
0.0
 27
0.0
 37
0.0
 42
50.0
 43
0.0
 44
0.0
 45
8.993
 50
0.0
 51
0.0
 72
   100
 90
   557152
  1

281
     0
 71
     1
 74
     0
110
0.0
120
0.0
130
0.0
111
1.0
121
0.0
131
0.0
112
0.0
122
1.0
132
0.0
 79
     0
146
0.0
170
     0
 61
     5
292
     1
282
     1
141
0.0
142
0.0
 63
   256
  0
VIEWPORT
  5
692
330
68D
100
AcDbEntity
  8
0
100
AcDbViewport
 10
3.4999999
 20
5.25
 30
0.0
 40
576.0
 41
734.0
 68
     2
 69
     2
 12
0.0
 22
0.0
 13
0.0
 23
0.0
 14
0.5
 24
0.5
 15
0.5
 25
0.5
 16
0.0
 26
0.0
 36
1.0
 17
48.0
 27
-61.16666666666666
 37
0.0
 42
50.0
 43
0.0
 44
0.0
 45
8808.0
 50
0.0
 51
0.0
 72
   100
 90
   557152
  1

281
     0
 71
     1
 74
     0
110
0.0
120
0.0
130
0.0
111
1.0
121
0.0
131
0.0
112
0.0
122
1.0
132
0.0
 79
     0
146
0.0
170
     0
 61
     5
292
     1
282
     1
141
0.0
142
0.0
 63
   256
  0
ENDBLK
  5
690
330
68D
100
AcDbEntity
  8
0
100
AcDbBlockEnd
  0
BLOCK
  5
695
330
693
100
AcDbEntity
  8
0
100
AcDbBlockBegin
  2
*Paper_Space57
 70
     0
 10
0.0
 20
0.0
 30
0.0
  3
*Paper_Space57
  1

  0
VIEWPORT
  5
697
330
693
100
AcDbEntity
  8
0
100
AcDbViewport
 10
5.25
 20
4.0
 30
0.0
 40
11.638
 41
8.993
 68
     1
 69
     1
 12
5.25
 22
4.0
 13
0.0
 23
0.0
 14
0.5
 24
0.5
 15
0.5
 25
0.5
 16
0.0
 26
0.0
 36
1.0
 17
0.0
 27
0.0
 37
0.0
 42
50.0
 43
0.0
 44
0.0
 45
8.993
 50
0.0
 51
0.0
 72
   100
 90
   557152
  1

281
     0
 71
     1
 74
     0
110
0.0
120
0.0
130
0.0
111
1.0
121
0.0
131
0.0
112
0.0
122
1.0
132
0.0
 79
     0
146
0.0
170
     0
 61
     5
292
     1
282
     1
141
0.0
142
0.0
 63
   256
  0
VIEWPORT
  5
698
330
693
100
AcDbEntity
  8
0
100
AcDbViewport
 10
3.4999999
 20
5.25
 30
0.0
 40
576.0
 41
734.0
 68
     2
 69
     2
 12
0.0
 22
0.0
 13
0.0
 23
0.0
 14
0.5
 24
0.5
 15
0.5
 25
0.5
 16
0.0
 26
0.0
 36
1.0
 17
48.0
 27
-61.16666666666666
 37
0.0
 42
50.0
 43
0.0
 44
0.0
 45
8808.0
 50
0.0
 51
0.0
 72
   100
 90
   557152
  1

281
     0
 71
     1
 74
     0
110
0.0
120
0.0
130
0.0
111
1.0
121
0.0
131
0.0
112
0.0
122
1.0
132
0.0
 79
     0
146
0.0
170
     0
 61
     5
292
     1
282
     1
141
0.0
142
0.0
 63
   256
  0
ENDBLK
  5
696
330
693
100
AcDbEntity
  8
0
100
AcDbBlockEnd
  0
BLOCK
  5
69B
330
699
100
AcDbEntity
  8
0
100
AcDbBlockBegin
  2
*Paper_Space58
 70
     0
 10
0.0
 20
0.0
 30
0.0
  3
*Paper_Space58
  1

  0
VIEWPORT
  5
69D
330
699
100
AcDbEntity
  8
0
100
AcDbViewport
 10
5.25
 20
4.0
 30
0.0
 40
11.638
 41
8.993
 68
     1
 69
     1
 12
5.25
 22
4.0
 13
0.0
 23
0.0
 14
0.5
 24
0.5
 15
0.5
 25
0.5
 16
0.0
 26
0.0
 36
1.0
 17
0.0
 27
0.0
 37
0.0
 42
50.0
 43
0.0
 44
0.0
 45
8.993
 50
0.0
 51
0.0
 72
   100
 90
   557152
  1

281
     0
 71
     1
 74
     0
110
0.0
120
0.0
130
0.0
111
1.0
121
0.0
131
0.0
112
0.0
122
1.0
132
0.0
 79
     0
146
0.0
170
     0
 61
     5
292
     1
282
     1
141
0.0
142
0.0
 63
   256
  0
VIEWPORT
  5
69E
330
699
100
AcDbEntity
  8
0
100
AcDbViewport
 10
3.4999999
 20
5.25
 30
0.0
 40
576.0
 41
734.0
 68
     2
 69
     2
 12
0.0
 22
0.0
 13
0.0
 23
0.0
 14
0.5
 24
0.5
 15
0.5
 25
0.5
 16
0.0
 26
0.0
 36
1.0
 17
48.0
 27
-61.16666666666666
 37
0.0
 42
50.0
 43
0.0
 44
0.0
 45
8808.0
 50
0.0
 51
0.0
 72
   100
 90
   557152
  1

281
     0
 71
     1
 74
     0
110
0.0
120
0.0
130
0.0
111
1.0
121
0.0
131
0.0
112
0.0
122
1.0
132
0.0
 79
     0
146
0.0
170
     0
 61
     5
292
     1
282
     1
141
0.0
142
0.0
 63
   256
  0
ENDBLK
  5
69C
330
699
100
AcDbEntity
  8
0
100
AcDbBlockEnd
  0
BLOCK
  5
6A1
330
69F
100
AcDbEntity
  8
0
100
AcDbBlockBegin
  2
*Paper_Space59
 70
     0
 10
0.0
 20
0.0
 30
0.0
  3
*Paper_Space59
  1

  0
VIEWPORT
  5
6A3
330
69F
100
AcDbEntity
  8
0
100
AcDbViewport
 10
5.25
 20
4.0
 30
0.0
 40
11.638
 41
8.993
 68
     1
 69
     1
 12
5.25
 22
4.0
 13
0.0
 23
0.0
 14
0.5
 24
0.5
 15
0.5
 25
0.5
 16
0.0
 26
0.0
 36
1.0
 17
0.0
 27
0.0
 37
0.0
 42
50.0
 43
0.0
 44
0.0
 45
8.993
 50
0.0
 51
0.0
 72
   100
 90
   557152
  1

281
     0
 71
     1
 74
     0
110
0.0
120
0.0
130
0.0
111
1.0
121
0.0
131
0.0
112
0.0
122
1.0
132
0.0
 79
     0
146
0.0
170
     0
 61
     5
292
     1
282
     1
141
0.0
142
0.0
 63
   256
  0
VIEWPORT
  5
6A4
330
69F
100
AcDbEntity
  8
0
100
AcDbViewport
 10
3.4999999
 20
5.25
 30
0.0
 40
576.0
 41
734.0
 68
     2
 69
     2
 12
0.0
 22
0.0
 13
0.0
 23
0.0
 14
0.5
 24
0.5
 15
0.5
 25
0.5
 16
0.0
 26
0.0
 36
1.0
 17
48.0
 27
-61.16666666666666
 37
0.0
 42
50.0
 43
0.0
 44
0.0
 45
8808.0
 50
0.0
 51
0.0
 72
   100
 90
   557152
  1

281
     0
 71
     1
 74
     0
110
0.0
120
0.0
130
0.0
111
1.0
121
0.0
131
0.0
112
0.0
122
1.0
132
0.0
 79
     0
146
0.0
170
     0
 61
     5
292
     1
282
     1
141
0.0
142
0.0
 63
   256
  0
ENDBLK
  5
6A2
330
69F
100
AcDbEntity
  8
0
100
AcDbBlockEnd
  0
BLOCK
  5
6A7
330
6A5
100
AcDbEntity
  8
0
100
AcDbBlockBegin
  2
*Paper_Space60
 70
     0
 10
0.0
 20
0.0
 30
0.0
  3
*Paper_Space60
  1

  0
VIEWPORT
  5
6A9
330
6A5
100
AcDbEntity
  8
0
100
AcDbViewport
 10
5.25
 20
4.0
 30
0.0
 40
11.638
 41
8.993
 68
     1
 69
     1
 12
5.25
 22
4.0
 13
0.0
 23
0.0
 14
0.5
 24
0.5
 15
0.5
 25
0.5
 16
0.0
 26
0.0
 36
1.0
 17
0.0
 27
0.0
 37
0.0
 42
50.0
 43
0.0
 44
0.0
 45
8.993
 50
0.0
 51
0.0
 72
   100
 90
   557152
  1

281
     0
 71
     1
 74
     0
110
0.0
120
0.0
130
0.0
111
1.0
121
0.0
131
0.0
112
0.0
122
1.0
132
0.0
 79
     0
146
0.0
170
     0
 61
     5
292
     1
282
     1
141
0.0
142
0.0
 63
   256
  0
VIEWPORT
  5
6AA
330
6A5
100
AcDbEntity
  8
0
100
AcDbViewport
 10
3.4999999
 20
5.25
 30
0.0
 40
576.0
 41
734.0
 68
     2
 69
     2
 12
0.0
 22
0.0
 13
0.0
 23
0.0
 14
0.5
 24
0.5
 15
0.5
 25
0.5
 16
0.0
 26
0.0
 36
1.0
 17
48.0
 27
-61.16666666666666
 37
0.0
 42
50.0
 43
0.0
 44
0.0
 45
8808.0
 50
0.0
 51
0.0
 72
   100
 90
   557152
  1

281
     0
 71
     1
 74
     0
110
0.0
120
0.0
130
0.0
111
1.0
121
0.0
131
0.0
112
0.0
122
1.0
132
0.0
 79
     0
146
0.0
170
     0
 61
     5
292
     1
282
     1
141
0.0
142
0.0
 63
   256
  0
ENDBLK
  5
6A8
330
6A5
100
AcDbEntity
  8
0
100
AcDbBlockEnd
  0
BLOCK
  5
6AD
330
6AB
100
AcDbEntity
  8
0
100
AcDbBlockBegin
  2
*Paper_Space61
 70
     0
 10
0.0
 20
0.0
 30
0.0
  3
*Paper_Space61
  1

  0
VIEWPORT
  5
6AF
330
6AB
100
AcDbEntity
  8
0
100
AcDbViewport
 10
5.25
 20
4.0
 30
0.0
 40
11.638
 41
8.993
 68
     1
 69
     1
 12
5.25
 22
4.0
 13
0.0
 23
0.0
 14
0.5
 24
0.5
 15
0.5
 25
0.5
 16
0.0
 26
0.0
 36
1.0
 17
0.0
 27
0.0
 37
0.0
 42
50.0
 43
0.0
 44
0.0
 45
8.993
 50
0.0
 51
0.0
 72
   100
 90
   557152
  1

281
     0
 71
     1
 74
     0
110
0.0
120
0.0
130
0.0
111
1.0
121
0.0
131
0.0
112
0.0
122
1.0
132
0.0
 79
     0
146
0.0
170
     0
 61
     5
292
     1
282
     1
141
0.0
142
0.0
 63
   256
  0
VIEWPORT
  5
6B0
330
6AB
100
AcDbEntity
  8
0
100
AcDbViewport
 10
3.4999999
 20
5.25
 30
0.0
 40
576.0
 41
734.0
 68
     2
 69
     2
 12
0.0
 22
0.0
 13
0.0
 23
0.0
 14
0.5
 24
0.5
 15
0.5
 25
0.5
 16
0.0
 26
0.0
 36
1.0
 17
48.0
 27
-61.16666666666666
 37
0.0
 42
50.0
 43
0.0
 44
0.0
 45
8808.0
 50
0.0
 51
0.0
 72
   100
 90
   557152
  1

281
     0
 71
     1
 74
     0
110
0.0
120
0.0
130
0.0
111
1.0
121
0.0
131
0.0
112
0.0
122
1.0
132
0.0
 79
     0
146
0.0
170
     0
 61
     5
292
     1
282
     1
141
0.0
142
0.0
 63
   256
  0
ENDBLK
  5
6AE
330
6AB
100
AcDbEntity
  8
0
100
AcDbBlockEnd
  0
ENDSEC
  0
SECTION
  2
ENTITIES
  0
INSERT
  5
A5
330
1F
100
AcDbEntity
  8
DRYERJACK 486AL
100
AcDbBlockReference
  2
PD_4173
 10
0.0
 20
0.0
 30
0.0
  0
INSERT
  5
10B
330
1F
100
AcDbEntity
  8
DRYERJACK 486AL
100
AcDbBlockReference
  2
PD_4175
 10
0.0
 20
0.0
 30
0.0
  0
INSERT
  5
171
330
1F
100
AcDbEntity
  8
DRYERJACK 486AL
100
AcDbBlockReference
  2
PD_4177
 10
0.0
 20
0.0
 30
0.0
  0
INSERT
  5
1D7
330
1F
100
AcDbEntity
  8
DRYERJACK 486AL
100
AcDbBlockReference
  2
PD_4179
 10
0.0
 20
0.0
 30
0.0
  0
INSERT
  5
23B
330
1F
100
AcDbEntity
  8
DRYERJACK 486AL
100
AcDbBlockReference
  2
PD_4181
 10
0.0
 20
0.0
 30
0.0
  0
INSERT
  5
29F
330
1F
100
AcDbEntity
  8
DRYERJACK 486AL
100
AcDbBlockReference
  2
PD_4183
 10
0.0
 20
0.0
 30
0.0
  0
INSERT
  5
303
330
1F
100
AcDbEntity
  8
DRYERJACK 486AL
100
AcDbBlockReference
  2
PD_4185
 10
0.0
 20
0.0
 30
0.0
  0
INSERT
  5
367
330
1F
100
AcDbEntity
  8
DRYERJACK 486AL
100
AcDbBlockReference
  2
PD_4187
 10
0.0
 20
0.0
 30
0.0
  0
INSERT
  5
3C8
330
1F
100
AcDbEntity
  8
DRYERJACK 486AL
100
AcDbBlockReference
  2
PD_4189
 10
0.0
 20
0.0
 30
0.0
  0
INSERT
  5
429
330
1F
100
AcDbEntity
  8
DRYERJACK 486AL
100
AcDbBlockReference
  2
PD_4191
 10
0.0
 20
0.0
 30
0.0
  0
INSERT
  5
48A
330
1F
100
AcDbEntity
  8
DRYERJACK 486AL
100
AcDbBlockReference
  2
PD_4193
 10
0.0
 20
0.0
 30
0.0
  0
INSERT
  5
4EB
330
1F
100
AcDbEntity
  8
DRYERJACK 486AL
100
AcDbBlockReference
  2
PD_4195
 10
0.0
 20
0.0
 30
0.0
  0
INSERT
  5
558
330
1F
100
AcDbEntity
  8
DRYERJACK 486AL
100
AcDbBlockReference
  2
PD_4197
 10
0.0
 20
0.0
 30
0.0
  0
INSERT
  5
584
330
1F
100
AcDbEntity
  8
DRYERJACK 486AL
100
AcDbBlockReference
  2
PD_4199
 10
0.0
 20
0.0
 30
0.0
  0
INSERT
  5
5CA
330
1F
100
AcDbEntity
  8
DRYERJACK 486AL
100
AcDbBlockReference
  2
PD_4200
 10
0.0
 20
0.0
 30
0.0
  0
POLYLINE
  5
5CB
330
1F
100
AcDbEntity
  8
DRYERJACK 486AL
 62
     7
100
AcDb2dPolyline
 66
     1
 10
0.0
 20
0.0
 30
0.0
  0
VERTEX
  5
5CC
330
5CB
100
AcDbEntity
  8
DRYERJACK 486AL
 62
     7
100
AcDbVertex
100
AcDb2dVertex
 10
14.90101364648526
 20
-5.135788593114006
 30
0.0
  0
VERTEX
  5
5CD
330
5CB
100
AcDbEntity
  8
DRYERJACK 486AL
 62
     7
100
AcDbVertex
100
AcDb2dVertex
 10
79.82657989077725
 20
-5.135788593114006
 30
0.0
  0
VERTEX
  5
5CE
330
5CB
100
AcDbEntity
  8
DRYERJACK 486AL
 62
     7
100
AcDbVertex
100
AcDb2dVertex
 10
79.82657989077725
 20
-9.58169513640673
 30
0.0
  0
VERTEX
  5
5CF
330
5CB
100
AcDbEntity
  8
DRYERJACK 486AL
 62
     7
100
AcDbVertex
100
AcDb2dVertex
 10
14.90101364648526
 20
-9.58169513640673
 30
0.0
  0
VERTEX
  5
5D0
330
5CB
100
AcDbEntity
  8
DRYERJACK 486AL
 62
     7
100
AcDbVertex
100
AcDb2dVertex
 10
14.90101364648526
 20
-5.135788593114006
 30
0.0
  0
SEQEND
  5
5D1
330
5CB
100
AcDbEntity
  8
DRYERJACK 486AL
 62
     7
  0
MTEXT
  5
5D2
330
1F
100
AcDbEntity
  8
DRYERJACK 486AL
 62
     7
100
AcDbMText
 10
16.50139450817385
 20
-15.70125
 30
0.0
 40
0.9583333333333333
 41
11.66666666666667
 46
0.2
 71
     1
 72
     1
  1
\pxsm0.83;\fHelvetica|b1|i0|c0|p0.9583;\W0.92;ROOF SLOPE 3/12
 73
     1
 44
1.0
1001
ACAD
1000
ACAD_MTEXT_DEFINED_HEIGHT_BEGIN
1070
    46
1040
0.2
1000
ACAD_MTEXT_DEFINED_HEIGHT_END
  0
MTEXT
  5
5D3
330
1F
100
AcDbEntity
  8
DRYERJACK 486AL
 62
     7
100
AcDbMText
 10
33.90371351752836
 20
-15.70125
 30
0.0
 40
0.9583333333333333
 41
11.66666666666667
 46
0.2
 71
     1
 72
     1
  1
\pxsm0.83;\fHelvetica|b1|i0|c0|p0.9583;\W0.92;ROOF SLOPE 4/12
 73
     1
 44
1.0
1001
ACAD
1000
ACAD_MTEXT_DEFINED_HEIGHT_BEGIN
1070
    46
1040
0.2
1000
ACAD_MTEXT_DEFINED_HEIGHT_END
  0
MTEXT
  5
5D4
330
1F
100
AcDbEntity
  8
DRYERJACK 486AL
 62
     7
100
AcDbMText
 10
52.72519367546445
 20
-15.70125
 30
0.0
 40
0.9583333333333333
 41
11.66666666666667
 46
0.2
 71
     1
 72
     1
  1
\pxsm0.83;\fHelvetica|b1|i0|c0|p0.9583;\W0.92;ROOF SLOPE 5/12
 73
     1
 44
1.0
1001
ACAD
1000
ACAD_MTEXT_DEFINED_HEIGHT_BEGIN
1070
    46
1040
0.2
1000
ACAD_MTEXT_DEFINED_HEIGHT_END
  0
MTEXT
  5
5D5
330
1F
100
AcDbEntity
  8
DRYERJACK 486AL
 62
     7
100
AcDbMText
 10
71.75
 20
-15.70125
 30
0.0
 40
0.9583333333333333
 41
11.66666666666667
 46
0.2
 71
     1
 72
     1
  1
\pxsm0.83;\fHelvetica|b1|i0|c0|p0.9583;\W0.92;ROOF SLOPE 6/12
 73
     1
 44
1.0
1001
ACAD
1000
ACAD_MTEXT_DEFINED_HEIGHT_BEGIN
1070
    46
1040
0.2
1000
ACAD_MTEXT_DEFINED_HEIGHT_END
  0
MTEXT
  5
5D6
330
1F
100
AcDbEntity
  8
DRYERJACK 486AL
 62
     7
100
AcDbMText
 10
11.75
 20
-27.74291666666667
 30
0.0
 40
0.9583333333333333
 41
6.833333333333333
 46
0.2
 71
     1
 72
     1
  1
\pxsm0.83;\fHelvetica|b1|i0|c0|p0.9583;\W0.92;1/2" = 1'-0"
 73
     1
 44
1.0
1001
ACAD
1000
ACAD_MTEXT_DEFINED_HEIGHT_BEGIN
1070
    46
1040
0.2
1000
ACAD_MTEXT_DEFINED_HEIGHT_END
  0
MTEXT
  5
5D7
330
1F
100
AcDbEntity
  8
DRYERJACK 486AL
 62
     7
100
AcDbMText
 10
11.75
 20
-41.57625
 30
0.0
 40
0.9583333333333333
 41
6.833333333333333
 46
0.2
 71
     1
 72
     1
  1
\pxsm0.83;\fHelvetica|b1|i0|c0|p0.9583;\W0.92;3/4" = 1'-0"
 73
     1
 44
1.0
1001
ACAD
1000
ACAD_MTEXT_DEFINED_HEIGHT_BEGIN
1070
    46
1040
0.2
1000
ACAD_MTEXT_DEFINED_HEIGHT_END
  0
MTEXT
  5
5D8
330
1F
100
AcDbEntity
  8
DRYERJACK 486AL
 62
     7
100
AcDbMText
 10
11.75
 20
-59.57625
 30
0.0
 40
0.9583333333333333
 41
5.833333333333333
 46
0.2
 71
     1
 72
     1
  1
\pxsm0.83;\fHelvetica|b1|i0|c0|p0.9583;\W0.92;1" = 1'-0"
 73
     1
 44
1.0
1001
ACAD
1000
ACAD_MTEXT_DEFINED_HEIGHT_BEGIN
1070
    46
1040
0.2
1000
ACAD_MTEXT_DEFINED_HEIGHT_END
  0
MTEXT
  5
5D9
330
1F
100
AcDbEntity
  8
DRYERJACK 486AL
 62
     7
420
 16777215
100
AcDbMText
 10
18.0
 20
-6.062864583333333
 30
0.0
 40
3.473958333333333
 41
58.33333333333333
 46
0.2
 71
     1
 72
     1
  1
\pxsm0.83;\fHelvetica|b1|i0|c0|p3.4740;\W0.92;DRYERJACK MODEL 466
 73
     1
 44
1.0
1001
ACAD
1000
ACAD_MTEXT_DEFINED_HEIGHT_BEGIN
1070
    46
1040
0.2
1000
ACAD_MTEXT_DEFINED_HEIGHT_END
  0
MTEXT
  5
5DA
330
1F
100
AcDbEntity
  8
DRYERJACK 486AL
 62
     7
100
AcDbMText
 10
11.75944788783163
 20
-63.17905978528629
 30
0.0
 40
1.796875
 41
13.5
 46
0.2
 71
     1
 72
     1
  1
\pxsm0.83;\fHelvetica|b1|i0|c0|p1.7969;\W0.92;SECTIONS 
 73
     1
 44
1.0
1001
ACAD
1000
ACAD_MTEXT_DEFINED_HEIGHT_BEGIN
1070
    46
1040
0.2
1000
ACAD_MTEXT_DEFINED_HEIGHT_END
  0
MTEXT
  5
5DB
330
1F
100
AcDbEntity
  8
DRYERJACK 486AL
 62
     7
100
AcDbMText
 10
21.13015466656853
 20
-91.32788324376611
 30
0.0
 40
1.197916666666667
 41
7.333333333333333
 46
0.2
 71
     1
 72
     1
  1
\pxsm0.83;\fHelvetica|b1|i0|c0|p1.1979;\W0.92;SECTION
 73
     1
 44
1.0
1001
ACAD
1000
ACAD_MTEXT_DEFINED_HEIGHT_BEGIN
1070
    46
1040
0.2
1000
ACAD_MTEXT_DEFINED_HEIGHT_END
  0
MTEXT
  5
5DC
330
1F
100
AcDbEntity
  8
DRYERJACK 486AL
 62
     7
100
AcDbMText
 10
11.75944788783163
 20
-111.9226241258438
 30
0.0
 40
1.796875
 41
19.33333333333333
 46
0.2
 71
     1
 72
     1
  1
\pxsm0.83;\fHelvetica|b1|i0|c0|p1.7969;\W0.92;DETAILS 1 1/2" = 1'-0" 
 73
     1
 44
1.0
1001
ACAD
1000
ACAD_MTEXT_DEFINED_HEIGHT_BEGIN
1070
    46
1040
0.2
1000
ACAD_MTEXT_DEFINED_HEIGHT_END
  0
MTEXT
  5
5DD
330
1F
100
AcDbEntity
  8
DRYERJACK 486AL
 62
     7
100
AcDbMText
 10
50.94630344151299
 20
-91.32788324376611
 30
0.0
 40
1.197916666666667
 41
3.5
 46
0.2
 71
     1
 72
     1
  1
\pxsm0.83;\fHelvetica|b1|i0|c0|p1.1979;\W0.92;TOP
 73
     1
 44
1.0
1001
ACAD
1000
ACAD_MTEXT_DEFINED_HEIGHT_BEGIN
1070
    46
1040
0.2
1000
ACAD_MTEXT_DEFINED_HEIGHT_END
  0
MTEXT
  5
5DE
330
1F
100
AcDbEntity
  8
DRYERJACK 486AL
 62
     7
100
AcDbMText
 10
21.13015466656853
 20
-108.6408808100838
 30
0.0
 40
1.197916666666667
 41
3.833333333333333
 46
0.2
 71
     1
 72
     1
  1
\pxsm0.83;\fHelvetica|b1|i0|c0|p1.1979;\W0.92;SIDE
 73
     1
 44
1.0
1001
ACAD
1000
ACAD_MTEXT_DEFINED_HEIGHT_BEGIN
1070
    46
1040
0.2
1000
ACAD_MTEXT_DEFINED_HEIGHT_END
  0
MTEXT
  5
5DF
330
1F
100
AcDbEntity
  8
DRYERJACK 486AL
 62
     7
100
AcDbMText
 10
50.94630344151299
 20
-108.6408808100838
 30
0.0
 40
1.197916666666667
 41
5.666666666666666
 46
0.2
 71
     1
 72
     1
  1
\pxsm0.83;\fHelvetica|b1|i0|c0|p1.1979;\W0.92;FRONT
 73
     1
 44
1.0
1001
ACAD
1000
ACAD_MTEXT_DEFINED_HEIGHT_BEGIN
1070
    46
1040
0.2
1000
ACAD_MTEXT_DEFINED_HEIGHT_END
  0
INSERT
  5
5FC
330
1F
100
AcDbEntity
  8
DRYERJACK 486AL
100
AcDbBlockReference
  2
PD_4202
 10
0.0
 20
0.0
 30
0.0
  0
VIEWPORT
  5
601
330
5FD
100
AcDbEntity
 67
     1
  8
0
100
AcDbViewport
 10
5.25
 20
4.0
 30
0.0
 40
11.638
 41
8.993
 68
     1
 69
     1
 12
5.25
 22
4.0
 13
0.0
 23
0.0
 14
0.5
 24
0.5
 15
0.5
 25
0.5
 16
0.0
 26
0.0
 36
1.0
 17
0.0
 27
0.0
 37
0.0
 42
50.0
 43
0.0
 44
0.0
 45
8.993
 50
0.0
 51
0.0
 72
   100
 90
   557152
  1

281
     0
 71
     1
 74
     0
110
0.0
120
0.0
130
0.0
111
1.0
121
0.0
131
0.0
112
0.0
122
1.0
132
0.0
 79
     0
146
0.0
170
     0
 61
     5
292
     1
282
     1
141
0.0
142
0.0
 63
   256
  0
VIEWPORT
  5
602
330
5FD
100
AcDbEntity
 67
     1
  8
0
100
AcDbViewport
 10
3.4999999
 20
5.25
 30
0.0
 40
576.0
 41
734.0
 68
     2
 69
     2
 12
0.0
 22
0.0
 13
0.0
 23
0.0
 14
0.5
 24
0.5
 15
0.5
 25
0.5
 16
0.0
 26
0.0
 36
1.0
 17
48.0
 27
-61.16666666666666
 37
0.0
 42
50.0
 43
0.0
 44
0.0
 45
8808.0
 50
0.0
 51
0.0
 72
   100
 90
   557152
  1

281
     0
 71
     1
 74
     0
110
0.0
120
0.0
130
0.0
111
1.0
121
0.0
131
0.0
112
0.0
122
1.0
132
0.0
 79
     0
146
0.0
170
     0
 61
     5
292
     1
282
     1
141
0.0
142
0.0
 63
   256
  0
ENDSEC
  0
SECTION
  2
OBJECTS
  0
DICTIONARY
  5
C
330
0
100
AcDbDictionary
281
     1
  3
ACAD_GROUP
350
D
  3
ACAD_LAYOUT
350
1A
  3
ACAD_MATERIAL
350
3B
  3
ACAD_MLEADERSTYLE
350
6DC
  3
ACAD_MLINESTYLE
350
17
  3
ACAD_PLOTSETTINGS
350
19
  3
ACAD_PLOTSTYLENAME
350
E
  3
ACAD_SCALELIST
350
6B7
  3
ACAD_TABLESTYLE
350
6DB
  3
ACAD_VISUALSTYLE
350
2A
  3
AcDbVariableDictionary
350
6D9
  0
DICTIONARY
  5
D
102
{ACAD_REACTORS
330
C
102
}
330
C
100
AcDbDictionary
281
     1
  0
DICTIONARY
  5
1A
102
{ACAD_REACTORS
330
C
102
}
330
C
100
AcDbDictionary
281
     1
  3
clg demo
350
60A
  3
clg new
350
616
  3
demo plan
350
604
  3
demo roof
350
622
  3
engineer plan
350
62E
  3
furn
350
61C
  3
Layout 19
350
65E
  3
Layout 20
350
664
  3
Layout 21
350
66A
  3
Layout 22
350
670
  3
Layout 23
350
676
  3
Layout 24
350
67C
  3
Layout 25
350
682
  3
Layout 26
350
688
  3
Layout 27
350
68E
  3
Layout 28
350
694
  3
Layout 29
350
69A
  3
Layout 30
350
6A0
  3
Layout 31
350
6A6
  3
Layout 32
350
6AC
  3
Layout 33
350
6B2
  3
Model
350
22
  3
new roof
350
628
  3
new work
350
610
  3
Setup 10
350
63A
  3
Setup 11
350
640
  3
Setup 12
350
646
  3
Setup 13
350
64C
  3
Setup 14
350
652
  3
Setup 15
350
658
  3
Working Layout
350
5FE
  3
X
350
634
  0
DICTIONARY
  5
3B
102
{ACAD_REACTORS
330
C
102
}
330
C
100
AcDbDictionary
281
     1
  3
ByBlock
350
3D
  3
ByLayer
350
3C
  3
Global
350
3E
  0
DICTIONARY
  5
6DC
102
{ACAD_REACTORS
330
C
102
}
330
C
100
AcDbDictionary
281
     1
  0
DICTIONARY
  5
17
102
{ACAD_REACTORS
330
C
102
}
330
C
100
AcDbDictionary
281
     1
  3
Standard
350
18
  0
DICTIONARY
  5
19
102
{ACAD_REACTORS
330
C
102
}
330
C
100
AcDbDictionary
281
     1
  0
ACDBDICTIONARYWDFLT
  5
E
102
{ACAD_REACTORS
330
C
102
}
330
C
100
AcDbDictionary
281
     1
  3
Normal
350
F
100
AcDbDictionaryWithDefault
340
F
  0
DICTIONARY
  5
6B7
102
{ACAD_REACTORS
330
C
102
}
330
C
100
AcDbDictionary
281
     1
  3
A0
350
6B8
  3
A1
350
6B9
  3
A2
350
6BA
  3
A3
350
6BB
  3
A4
350
6BC
  3
A5
350
6BD
  3
A6
350
6BE
  3
A7
350
6BF
  3
A8
350
6C0
  3
A9
350
6C1
  3
B0
350
6C2
  3
B1
350
6C3
  3
B2
350
6C4
  3
B3
350
6C5
  3
B4
350
6C6
  3
B5
350
6C7
  3
B6
350
6C8
  3
B7
350
6C9
  3
B8
350
6CA
  3
B9
350
6CB
  3
C0
350
6CC
  3
C1
350
6CD
  3
C2
350
6CE
  3
C3
350
6CF
  3
C4
350
6D0
  3
C5
350
6D1
  3
C6
350
6D2
  3
C7
350
6D3
  3
C8
350
6D4
  3
C9
350
6D5
  3
D0
350
6D6
  3
D1
350
6D7
  3
D2
350
6D8
  0
DICTIONARY
  5
6DB
102
{ACAD_REACTORS
330
C
102
}
330
C
100
AcDbDictionary
281
     1
  0
DICTIONARY
  5
2A
102
{ACAD_REACTORS
330
C
102
}
330
C
100
AcDbDictionary
281
     1
  3
2dWireframe
350
2F
  3
3D Hidden
350
31
  3
3dWireframe
350
30
  3
Basic
350
32
  3
Brighten
350
36
  3
ColorChange
350
3A
  3
Conceptual
350
34
  3
Dim
350
35
  3
Facepattern
350
39
  3
Flat
350
2B
  3
FlatWithEdges
350
2C
  3
Gouraud
350
2D
  3
GouraudWithEdges
350
2E
  3
Linepattern
350
38
  3
Realistic
350
33
  3
Thicken
350
37
  0
DICTIONARY
  5
6D9
102
{ACAD_REACTORS
330
C
102
}
330
C
100
AcDbDictionary
281
     1
  3
CANNOSCALE
350
6DA
  0
LAYOUT
  5
60A
102
{ACAD_REACTORS
330
1A
102
}
330
1A
100
AcDbPlotSettings
  1

  2
none_device
  4
ANSI_A_(11.00_x_8.50_Inches)
  6

 40
6.35
 41
19.05
 42
6.35000508
 43
19.05000254
 44
279.4
 45
215.9
 46
0.0
 47
0.0
 48
0.0
 49
0.0
140
0.0
141
0.0
142
1.0
143
1.0
 70
   688
 72
     0
 73
     1
 74
     5
  7

 75
    16
 76
     0
 77
     2
 78
   300
147
1.0
148
0.0
149
0.0
100
AcDbLayout
  1
clg demo
 70
     1
 71
     3
 10
0.0
 20
0.0
 11
0.0
 21
0.0
 12
0.0
 22
0.0
 32
0.0
 14
0.0
 24
0.0
 34
0.0
 15
0.0
 25
0.0
 35
0.0
146
0.0
 13
0.0
 23
0.0
 33
0.0
 16
1.0
 26
0.0
 36
0.0
 17
0.0
 27
1.0
 37
0.0
 76
     0
330
609
331
60D
  0
LAYOUT
  5
616
102
{ACAD_REACTORS
330
1A
102
}
330
1A
100
AcDbPlotSettings
  1

  2
none_device
  4
ANSI_A_(11.00_x_8.50_Inches)
  6

 40
6.35
 41
19.05
 42
6.35000508
 43
19.05000254
 44
279.4
 45
215.9
 46
0.0
 47
0.0
 48
0.0
 49
0.0
140
0.0
141
0.0
142
1.0
143
1.0
 70
   688
 72
     0
 73
     1
 74
     5
  7

 75
    16
 76
     0
 77
     2
 78
   300
147
1.0
148
0.0
149
0.0
100
AcDbLayout
  1
clg new
 70
     1
 71
     5
 10
0.0
 20
0.0
 11
0.0
 21
0.0
 12
0.0
 22
0.0
 32
0.0
 14
0.0
 24
0.0
 34
0.0
 15
0.0
 25
0.0
 35
0.0
146
0.0
 13
0.0
 23
0.0
 33
0.0
 16
1.0
 26
0.0
 36
0.0
 17
0.0
 27
1.0
 37
0.0
 76
     0
330
615
331
619
  0
LAYOUT
  5
604
102
{ACAD_REACTORS
330
1A
102
}
330
1A
100
AcDbPlotSettings
  1

  2
none_device
  4
ANSI_A_(11.00_x_8.50_Inches)
  6

 40
6.35
 41
19.05
 42
6.35000508
 43
19.05000254
 44
279.4
 45
215.9
 46
0.0
 47
0.0
 48
0.0
 49
0.0
140
0.0
141
0.0
142
1.0
143
1.0
 70
   688
 72
     0
 73
     1
 74
     5
  7

 75
    16
 76
     0
 77
     2
 78
   300
147
1.0
148
0.0
149
0.0
100
AcDbLayout
  1
demo plan
 70
     1
 71
     2
 10
0.0
 20
0.0
 11
0.0
 21
0.0
 12
0.0
 22
0.0
 32
0.0
 14
0.0
 24
0.0
 34
0.0
 15
0.0
 25
0.0
 35
0.0
146
0.0
 13
0.0
 23
0.0
 33
0.0
 16
1.0
 26
0.0
 36
0.0
 17
0.0
 27
1.0
 37
0.0
 76
     0
330
603
331
607
  0
LAYOUT
  5
622
102
{ACAD_REACTORS
330
1A
102
}
330
1A
100
AcDbPlotSettings
  1

  2
none_device
  4
ANSI_A_(11.00_x_8.50_Inches)
  6

 40
6.35
 41
19.05
 42
6.35000508
 43
19.05000254
 44
279.4
 45
215.9
 46
0.0
 47
0.0
 48
0.0
 49
0.0
140
0.0
141
0.0
142
1.0
143
1.0
 70
   688
 72
     0
 73
     1
 74
     5
  7

 75
    16
 76
     0
 77
     2
 78
   300
147
1.0
148
0.0
149
0.0
100
AcDbLayout
  1
demo roof
 70
     1
 71
     7
 10
0.0
 20
0.0
 11
0.0
 21
0.0
 12
0.0
 22
0.0
 32
0.0
 14
0.0
 24
0.0
 34
0.0
 15
0.0
 25
0.0
 35
0.0
146
0.0
 13
0.0
 23
0.0
 33
0.0
 16
1.0
 26
0.0
 36
0.0
 17
0.0
 27
1.0
 37
0.0
 76
     0
330
621
331
625
  0
LAYOUT
  5
62E
102
{ACAD_REACTORS
330
1A
102
}
330
1A
100
AcDbPlotSettings
  1

  2
none_device
  4
ANSI_A_(11.00_x_8.50_Inches)
  6

 40
6.35
 41
19.05
 42
6.35000508
 43
19.05000254
 44
279.4
 45
215.9
 46
0.0
 47
0.0
 48
0.0
 49
0.0
140
0.0
141
0.0
142
1.0
143
1.0
 70
   688
 72
     0
 73
     1
 74
     5
  7

 75
    16
 76
     0
 77
     2
 78
   300
147
1.0
148
0.0
149
0.0
100
AcDbLayout
  1
engineer plan
 70
     1
 71
     9
 10
0.0
 20
0.0
 11
0.0
 21
0.0
 12
0.0
 22
0.0
 32
0.0
 14
0.0
 24
0.0
 34
0.0
 15
0.0
 25
0.0
 35
0.0
146
0.0
 13
0.0
 23
0.0
 33
0.0
 16
1.0
 26
0.0
 36
0.0
 17
0.0
 27
1.0
 37
0.0
 76
     0
330
62D
331
631
  0
LAYOUT
  5
61C
102
{ACAD_REACTORS
330
1A
102
}
330
1A
100
AcDbPlotSettings
  1

  2
none_device
  4
ANSI_A_(11.00_x_8.50_Inches)
  6

 40
6.35
 41
19.05
 42
6.35000508
 43
19.05000254
 44
279.4
 45
215.9
 46
0.0
 47
0.0
 48
0.0
 49
0.0
140
0.0
141
0.0
142
1.0
143
1.0
 70
   688
 72
     0
 73
     1
 74
     5
  7

 75
    16
 76
     0
 77
     2
 78
   300
147
1.0
148
0.0
149
0.0
100
AcDbLayout
  1
furn
 70
     1
 71
     6
 10
0.0
 20
0.0
 11
0.0
 21
0.0
 12
0.0
 22
0.0
 32
0.0
 14
0.0
 24
0.0
 34
0.0
 15
0.0
 25
0.0
 35
0.0
146
0.0
 13
0.0
 23
0.0
 33
0.0
 16
1.0
 26
0.0
 36
0.0
 17
0.0
 27
1.0
 37
0.0
 76
     0
330
61B
331
61F
  0
LAYOUT
  5
65E
102
{ACAD_REACTORS
330
1A
102
}
330
1A
100
AcDbPlotSettings
  1

  2
none_device
  4
ANSI_A_(11.00_x_8.50_Inches)
  6

 40
6.35
 41
19.05
 42
6.35000508
 43
19.05000254
 44
279.4
 45
215.9
 46
0.0
 47
0.0
 48
0.0
 49
0.0
140
0.0
141
0.0
142
1.0
143
1.0
 70
   688
 72
     0
 73
     1
 74
     5
  7

 75
    16
 76
     0
 77
     2
 78
   300
147
1.0
148
0.0
149
0.0
100
AcDbLayout
  1
Layout 19
 70
     1
 71
    17
 10
0.0
 20
0.0
 11
0.0
 21
0.0
 12
0.0
 22
0.0
 32
0.0
 14
0.0
 24
0.0
 34
0.0
 15
0.0
 25
0.0
 35
0.0
146
0.0
 13
0.0
 23
0.0
 33
0.0
 16
1.0
 26
0.0
 36
0.0
 17
0.0
 27
1.0
 37
0.0
 76
     0
330
65D
331
661
  0
LAYOUT
  5
664
102
{ACAD_REACTORS
330
1A
102
}
330
1A
100
AcDbPlotSettings
  1

  2
none_device
  4
ANSI_A_(11.00_x_8.50_Inches)
  6

 40
6.35
 41
19.05
 42
6.35000508
 43
19.05000254
 44
279.4
 45
215.9
 46
0.0
 47
0.0
 48
0.0
 49
0.0
140
0.0
141
0.0
142
1.0
143
1.0
 70
   688
 72
     0
 73
     1
 74
     5
  7

 75
    16
 76
     0
 77
     2
 78
   300
147
1.0
148
0.0
149
0.0
100
AcDbLayout
  1
Layout 20
 70
     1
 71
    18
 10
0.0
 20
0.0
 11
0.0
 21
0.0
 12
0.0
 22
0.0
 32
0.0
 14
0.0
 24
0.0
 34
0.0
 15
0.0
 25
0.0
 35
0.0
146
0.0
 13
0.0
 23
0.0
 33
0.0
 16
1.0
 26
0.0
 36
0.0
 17
0.0
 27
1.0
 37
0.0
 76
     0
330
663
331
667
  0
LAYOUT
  5
66A
102
{ACAD_REACTORS
330
1A
102
}
330
1A
100
AcDbPlotSettings
  1

  2
none_device
  4
ANSI_A_(11.00_x_8.50_Inches)
  6

 40
6.35
 41
19.05
 42
6.35000508
 43
19.05000254
 44
279.4
 45
215.9
 46
0.0
 47
0.0
 48
0.0
 49
0.0
140
0.0
141
0.0
142
1.0
143
1.0
 70
   688
 72
     0
 73
     1
 74
     5
  7

 75
    16
 76
     0
 77
     2
 78
   300
147
1.0
148
0.0
149
0.0
100
AcDbLayout
  1
Layout 21
 70
     1
 71
    19
 10
0.0
 20
0.0
 11
0.0
 21
0.0
 12
0.0
 22
0.0
 32
0.0
 14
0.0
 24
0.0
 34
0.0
 15
0.0
 25
0.0
 35
0.0
146
0.0
 13
0.0
 23
0.0
 33
0.0
 16
1.0
 26
0.0
 36
0.0
 17
0.0
 27
1.0
 37
0.0
 76
     0
330
669
331
66D
  0
LAYOUT
  5
670
102
{ACAD_REACTORS
330
1A
102
}
330
1A
100
AcDbPlotSettings
  1

  2
none_device
  4
ANSI_A_(11.00_x_8.50_Inches)
  6

 40
6.35
 41
19.05
 42
6.35000508
 43
19.05000254
 44
279.4
 45
215.9
 46
0.0
 47
0.0
 48
0.0
 49
0.0
140
0.0
141
0.0
142
1.0
143
1.0
 70
   688
 72
     0
 73
     1
 74
     5
  7

 75
    16
 76
     0
 77
     2
 78
   300
147
1.0
148
0.0
149
0.0
100
AcDbLayout
  1
Layout 22
 70
     1
 71
    20
 10
0.0
 20
0.0
 11
0.0
 21
0.0
 12
0.0
 22
0.0
 32
0.0
 14
0.0
 24
0.0
 34
0.0
 15
0.0
 25
0.0
 35
0.0
146
0.0
 13
0.0
 23
0.0
 33
0.0
 16
1.0
 26
0.0
 36
0.0
 17
0.0
 27
1.0
 37
0.0
 76
     0
330
66F
331
673
  0
LAYOUT
  5
676
102
{ACAD_REACTORS
330
1A
102
}
330
1A
100
AcDbPlotSettings
  1

  2
none_device
  4
ANSI_A_(11.00_x_8.50_Inches)
  6

 40
6.35
 41
19.05
 42
6.35000508
 43
19.05000254
 44
279.4
 45
215.9
 46
0.0
 47
0.0
 48
0.0
 49
0.0
140
0.0
141
0.0
142
1.0
143
1.0
 70
   688
 72
     0
 73
     1
 74
     5
  7

 75
    16
 76
     0
 77
     2
 78
   300
147
1.0
148
0.0
149
0.0
100
AcDbLayout
  1
Layout 23
 70
     1
 71
    21
 10
0.0
 20
0.0
 11
0.0
 21
0.0
 12
0.0
 22
0.0
 32
0.0
 14
0.0
 24
0.0
 34
0.0
 15
0.0
 25
0.0
 35
0.0
146
0.0
 13
0.0
 23
0.0
 33
0.0
 16
1.0
 26
0.0
 36
0.0
 17
0.0
 27
1.0
 37
0.0
 76
     0
330
675
331
679
  0
LAYOUT
  5
67C
102
{ACAD_REACTORS
330
1A
102
}
330
1A
100
AcDbPlotSettings
  1

  2
none_device
  4
ANSI_A_(11.00_x_8.50_Inches)
  6

 40
6.35
 41
19.05
 42
6.35000508
 43
19.05000254
 44
279.4
 45
215.9
 46
0.0
 47
0.0
 48
0.0
 49
0.0
140
0.0
141
0.0
142
1.0
143
1.0
 70
   688
 72
     0
 73
     1
 74
     5
  7

 75
    16
 76
     0
 77
     2
 78
   300
147
1.0
148
0.0
149
0.0
100
AcDbLayout
  1
Layout 24
 70
     1
 71
    22
 10
0.0
 20
0.0
 11
0.0
 21
0.0
 12
0.0
 22
0.0
 32
0.0
 14
0.0
 24
0.0
 34
0.0
 15
0.0
 25
0.0
 35
0.0
146
0.0
 13
0.0
 23
0.0
 33
0.0
 16
1.0
 26
0.0
 36
0.0
 17
0.0
 27
1.0
 37
0.0
 76
     0
330
67B
331
67F
  0
LAYOUT
  5
682
102
{ACAD_REACTORS
330
1A
102
}
330
1A
100
AcDbPlotSettings
  1

  2
none_device
  4
ANSI_A_(11.00_x_8.50_Inches)
  6

 40
6.35
 41
19.05
 42
6.35000508
 43
19.05000254
 44
279.4
 45
215.9
 46
0.0
 47
0.0
 48
0.0
 49
0.0
140
0.0
141
0.0
142
1.0
143
1.0
 70
   688
 72
     0
 73
     1
 74
     5
  7

 75
    16
 76
     0
 77
     2
 78
   300
147
1.0
148
0.0
149
0.0
100
AcDbLayout
  1
Layout 25
 70
     1
 71
    23
 10
0.0
 20
0.0
 11
0.0
 21
0.0
 12
0.0
 22
0.0
 32
0.0
 14
0.0
 24
0.0
 34
0.0
 15
0.0
 25
0.0
 35
0.0
146
0.0
 13
0.0
 23
0.0
 33
0.0
 16
1.0
 26
0.0
 36
0.0
 17
0.0
 27
1.0
 37
0.0
 76
     0
330
681
331
685
  0
LAYOUT
  5
688
102
{ACAD_REACTORS
330
1A
102
}
330
1A
100
AcDbPlotSettings
  1

  2
none_device
  4
ANSI_A_(11.00_x_8.50_Inches)
  6

 40
6.35
 41
19.05
 42
6.35000508
 43
19.05000254
 44
279.4
 45
215.9
 46
0.0
 47
0.0
 48
0.0
 49
0.0
140
0.0
141
0.0
142
1.0
143
1.0
 70
   688
 72
     0
 73
     1
 74
     5
  7

 75
    16
 76
     0
 77
     2
 78
   300
147
1.0
148
0.0
149
0.0
100
AcDbLayout
  1
Layout 26
 70
     1
 71
    24
 10
0.0
 20
0.0
 11
0.0
 21
0.0
 12
0.0
 22
0.0
 32
0.0
 14
0.0
 24
0.0
 34
0.0
 15
0.0
 25
0.0
 35
0.0
146
0.0
 13
0.0
 23
0.0
 33
0.0
 16
1.0
 26
0.0
 36
0.0
 17
0.0
 27
1.0
 37
0.0
 76
     0
330
687
331
68B
  0
LAYOUT
  5
68E
102
{ACAD_REACTORS
330
1A
102
}
330
1A
100
AcDbPlotSettings
  1

  2
none_device
  4
ANSI_A_(11.00_x_8.50_Inches)
  6

 40
6.35
 41
19.05
 42
6.35000508
 43
19.05000254
 44
279.4
 45
215.9
 46
0.0
 47
0.0
 48
0.0
 49
0.0
140
0.0
141
0.0
142
1.0
143
1.0
 70
   688
 72
     0
 73
     1
 74
     5
  7

 75
    16
 76
     0
 77
     2
 78
   300
147
1.0
148
0.0
149
0.0
100
AcDbLayout
  1
Layout 27
 70
     1
 71
    25
 10
0.0
 20
0.0
 11
0.0
 21
0.0
 12
0.0
 22
0.0
 32
0.0
 14
0.0
 24
0.0
 34
0.0
 15
0.0
 25
0.0
 35
0.0
146
0.0
 13
0.0
 23
0.0
 33
0.0
 16
1.0
 26
0.0
 36
0.0
 17
0.0
 27
1.0
 37
0.0
 76
     0
330
68D
331
691
  0
LAYOUT
  5
694
102
{ACAD_REACTORS
330
1A
102
}
330
1A
100
AcDbPlotSettings
  1

  2
none_device
  4
ANSI_A_(11.00_x_8.50_Inches)
  6

 40
6.35
 41
19.05
 42
6.35000508
 43
19.05000254
 44
279.4
 45
215.9
 46
0.0
 47
0.0
 48
0.0
 49
0.0
140
0.0
141
0.0
142
1.0
143
1.0
 70
   688
 72
     0
 73
     1
 74
     5
  7

 75
    16
 76
     0
 77
     2
 78
   300
147
1.0
148
0.0
149
0.0
100
AcDbLayout
  1
Layout 28
 70
     1
 71
    26
 10
0.0
 20
0.0
 11
0.0
 21
0.0
 12
0.0
 22
0.0
 32
0.0
 14
0.0
 24
0.0
 34
0.0
 15
0.0
 25
0.0
 35
0.0
146
0.0
 13
0.0
 23
0.0
 33
0.0
 16
1.0
 26
0.0
 36
0.0
 17
0.0
 27
1.0
 37
0.0
 76
     0
330
693
331
697
  0
LAYOUT
  5
69A
102
{ACAD_REACTORS
330
1A
102
}
330
1A
100
AcDbPlotSettings
  1

  2
none_device
  4
ANSI_A_(11.00_x_8.50_Inches)
  6

 40
6.35
 41
19.05
 42
6.35000508
 43
19.05000254
 44
279.4
 45
215.9
 46
0.0
 47
0.0
 48
0.0
 49
0.0
140
0.0
141
0.0
142
1.0
143
1.0
 70
   688
 72
     0
 73
     1
 74
     5
  7

 75
    16
 76
     0
 77
     2
 78
   300
147
1.0
148
0.0
149
0.0
100
AcDbLayout
  1
Layout 29
 70
     1
 71
    27
 10
0.0
 20
0.0
 11
0.0
 21
0.0
 12
0.0
 22
0.0
 32
0.0
 14
0.0
 24
0.0
 34
0.0
 15
0.0
 25
0.0
 35
0.0
146
0.0
 13
0.0
 23
0.0
 33
0.0
 16
1.0
 26
0.0
 36
0.0
 17
0.0
 27
1.0
 37
0.0
 76
     0
330
699
331
69D
  0
LAYOUT
  5
6A0
102
{ACAD_REACTORS
330
1A
102
}
330
1A
100
AcDbPlotSettings
  1

  2
none_device
  4
ANSI_A_(11.00_x_8.50_Inches)
  6

 40
6.35
 41
19.05
 42
6.35000508
 43
19.05000254
 44
279.4
 45
215.9
 46
0.0
 47
0.0
 48
0.0
 49
0.0
140
0.0
141
0.0
142
1.0
143
1.0
 70
   688
 72
     0
 73
     1
 74
     5
  7

 75
    16
 76
     0
 77
     2
 78
   300
147
1.0
148
0.0
149
0.0
100
AcDbLayout
  1
Layout 30
 70
     1
 71
    28
 10
0.0
 20
0.0
 11
0.0
 21
0.0
 12
0.0
 22
0.0
 32
0.0
 14
0.0
 24
0.0
 34
0.0
 15
0.0
 25
0.0
 35
0.0
146
0.0
 13
0.0
 23
0.0
 33
0.0
 16
1.0
 26
0.0
 36
0.0
 17
0.0
 27
1.0
 37
0.0
 76
     0
330
69F
331
6A3
  0
LAYOUT
  5
6A6
102
{ACAD_REACTORS
330
1A
102
}
330
1A
100
AcDbPlotSettings
  1

  2
none_device
  4
ANSI_A_(11.00_x_8.50_Inches)
  6

 40
6.35
 41
19.05
 42
6.35000508
 43
19.05000254
 44
279.4
 45
215.9
 46
0.0
 47
0.0
 48
0.0
 49
0.0
140
0.0
141
0.0
142
1.0
143
1.0
 70
   688
 72
     0
 73
     1
 74
     5
  7

 75
    16
 76
     0
 77
     2
 78
   300
147
1.0
148
0.0
149
0.0
100
AcDbLayout
  1
Layout 31
 70
     1
 71
    29
 10
0.0
 20
0.0
 11
0.0
 21
0.0
 12
0.0
 22
0.0
 32
0.0
 14
0.0
 24
0.0
 34
0.0
 15
0.0
 25
0.0
 35
0.0
146
0.0
 13
0.0
 23
0.0
 33
0.0
 16
1.0
 26
0.0
 36
0.0
 17
0.0
 27
1.0
 37
0.0
 76
     0
330
6A5
331
6A9
  0
LAYOUT
  5
6AC
102
{ACAD_REACTORS
330
1A
102
}
330
1A
100
AcDbPlotSettings
  1

  2
none_device
  4
ANSI_A_(11.00_x_8.50_Inches)
  6

 40
6.35
 41
19.05
 42
6.35000508
 43
19.05000254
 44
279.4
 45
215.9
 46
0.0
 47
0.0
 48
0.0
 49
0.0
140
0.0
141
0.0
142
1.0
143
1.0
 70
   688
 72
     0
 73
     1
 74
     5
  7

 75
    16
 76
     0
 77
     2
 78
   300
147
1.0
148
0.0
149
0.0
100
AcDbLayout
  1
Layout 32
 70
     1
 71
    30
 10
0.0
 20
0.0
 11
0.0
 21
0.0
 12
0.0
 22
0.0
 32
0.0
 14
0.0
 24
0.0
 34
0.0
 15
0.0
 25
0.0
 35
0.0
146
0.0
 13
0.0
 23
0.0
 33
0.0
 16
1.0
 26
0.0
 36
0.0
 17
0.0
 27
1.0
 37
0.0
 76
     0
330
6AB
331
6AF
  0
LAYOUT
  5
6B2
102
{ACAD_REACTORS
330
1A
102
}
330
1A
100
AcDbPlotSettings
  1

  2
none_device
  4
ANSI_A_(11.00_x_8.50_Inches)
  6

 40
6.35
 41
19.05
 42
6.35000508
 43
19.05000254
 44
279.4
 45
215.9
 46
0.0
 47
0.0
 48
0.0
 49
0.0
140
0.0
141
0.0
142
1.0
143
1.0
 70
   688
 72
     0
 73
     1
 74
     5
  7

 75
    16
 76
     0
 77
     2
 78
   300
147
1.0
148
0.0
149
0.0
100
AcDbLayout
  1
Layout 33
 70
     1
 71
    31
 10
0.0
 20
0.0
 11
0.0
 21
0.0
 12
0.0
 22
0.0
 32
0.0
 14
0.0
 24
0.0
 34
0.0
 15
0.0
 25
0.0
 35
0.0
146
0.0
 13
0.0
 23
0.0
 33
0.0
 16
1.0
 26
0.0
 36
0.0
 17
0.0
 27
1.0
 37
0.0
 76
     0
330
6B1
331
6B5
  0
LAYOUT
  5
22
102
{ACAD_REACTORS
330
1A
102
}
330
1A
100
AcDbPlotSettings
  1

  2
none_device
  4

  6

 40
0.0
 41
0.0
 42
0.0
 43
0.0
 44
0.0
 45
0.0
 46
0.0
 47
0.0
 48
0.0
 49
0.0
140
0.0
141
0.0
142
1.0
143
1.0
 70
  1712
 72
     0
 73
     0
 74
     0
  7

 75
     0
 76
     0
 77
     2
 78
   300
147
1.0
148
0.0
149
0.0
100
AcDbLayout
  1
Model
 70
     1
 71
     0
 10
0.0
 20
0.0
 11
12.0
 21
9.0
 12
0.0
 22
0.0
 32
0.0
 14
1.000000000000000E+20
 24
1.000000000000000E+20
 34
1.000000000000000E+20
 15
-1.000000000000000E+20
 25
-1.000000000000000E+20
 35
-1.000000000000000E+20
146
0.0
 13
0.0
 23
0.0
 33
0.0
 16
1.0
 26
0.0
 36
0.0
 17
0.0
 27
1.0
 37
0.0
 76
     0
330
1F
331
29
  0
LAYOUT
  5
628
102
{ACAD_REACTORS
330
1A
102
}
330
1A
100
AcDbPlotSettings
  1

  2
none_device
  4
ANSI_A_(11.00_x_8.50_Inches)
  6

 40
6.35
 41
19.05
 42
6.35000508
 43
19.05000254
 44
279.4
 45
215.9
 46
0.0
 47
0.0
 48
0.0
 49
0.0
140
0.0
141
0.0
142
1.0
143
1.0
 70
   688
 72
     0
 73
     1
 74
     5
  7

 75
    16
 76
     0
 77
     2
 78
   300
147
1.0
148
0.0
149
0.0
100
AcDbLayout
  1
new roof
 70
     1
 71
     8
 10
0.0
 20
0.0
 11
0.0
 21
0.0
 12
0.0
 22
0.0
 32
0.0
 14
0.0
 24
0.0
 34
0.0
 15
0.0
 25
0.0
 35
0.0
146
0.0
 13
0.0
 23
0.0
 33
0.0
 16
1.0
 26
0.0
 36
0.0
 17
0.0
 27
1.0
 37
0.0
 76
     0
330
627
331
62B
  0
LAYOUT
  5
610
102
{ACAD_REACTORS
330
1A
102
}
330
1A
100
AcDbPlotSettings
  1

  2
none_device
  4
ANSI_A_(11.00_x_8.50_Inches)
  6

 40
6.35
 41
19.05
 42
6.35000508
 43
19.05000254
 44
279.4
 45
215.9
 46
0.0
 47
0.0
 48
0.0
 49
0.0
140
0.0
141
0.0
142
1.0
143
1.0
 70
   688
 72
     0
 73
     1
 74
     5
  7

 75
    16
 76
     0
 77
     2
 78
   300
147
1.0
148
0.0
149
0.0
100
AcDbLayout
  1
new work
 70
     1
 71
     4
 10
0.0
 20
0.0
 11
0.0
 21
0.0
 12
0.0
 22
0.0
 32
0.0
 14
0.0
 24
0.0
 34
0.0
 15
0.0
 25
0.0
 35
0.0
146
0.0
 13
0.0
 23
0.0
 33
0.0
 16
1.0
 26
0.0
 36
0.0
 17
0.0
 27
1.0
 37
0.0
 76
     0
330
60F
331
613
  0
LAYOUT
  5
63A
102
{ACAD_REACTORS
330
1A
102
}
330
1A
100
AcDbPlotSettings
  1

  2
none_device
  4
ANSI_A_(11.00_x_8.50_Inches)
  6

 40
6.35
 41
19.05
 42
6.35000508
 43
19.05000254
 44
279.4
 45
215.9
 46
0.0
 47
0.0
 48
0.0
 49
0.0
140
0.0
141
0.0
142
1.0
143
1.0
 70
   688
 72
     0
 73
     1
 74
     5
  7

 75
    16
 76
     0
 77
     2
 78
   300
147
1.0
148
0.0
149
0.0
100
AcDbLayout
  1
Setup 10
 70
     1
 71
    11
 10
0.0
 20
0.0
 11
0.0
 21
0.0
 12
0.0
 22
0.0
 32
0.0
 14
0.0
 24
0.0
 34
0.0
 15
0.0
 25
0.0
 35
0.0
146
0.0
 13
0.0
 23
0.0
 33
0.0
 16
1.0
 26
0.0
 36
0.0
 17
0.0
 27
1.0
 37
0.0
 76
     0
330
639
331
63D
  0
LAYOUT
  5
640
102
{ACAD_REACTORS
330
1A
102
}
330
1A
100
AcDbPlotSettings
  1

  2
none_device
  4
ANSI_A_(11.00_x_8.50_Inches)
  6

 40
6.35
 41
19.05
 42
6.35000508
 43
19.05000254
 44
279.4
 45
215.9
 46
0.0
 47
0.0
 48
0.0
 49
0.0
140
0.0
141
0.0
142
1.0
143
1.0
 70
   688
 72
     0
 73
     1
 74
     5
  7

 75
    16
 76
     0
 77
     2
 78
   300
147
1.0
148
0.0
149
0.0
100
AcDbLayout
  1
Setup 11
 70
     1
 71
    12
 10
0.0
 20
0.0
 11
0.0
 21
0.0
 12
0.0
 22
0.0
 32
0.0
 14
0.0
 24
0.0
 34
0.0
 15
0.0
 25
0.0
 35
0.0
146
0.0
 13
0.0
 23
0.0
 33
0.0
 16
1.0
 26
0.0
 36
0.0
 17
0.0
 27
1.0
 37
0.0
 76
     0
330
63F
331
643
  0
LAYOUT
  5
646
102
{ACAD_REACTORS
330
1A
102
}
330
1A
100
AcDbPlotSettings
  1

  2
none_device
  4
ANSI_A_(11.00_x_8.50_Inches)
  6

 40
6.35
 41
19.05
 42
6.35000508
 43
19.05000254
 44
279.4
 45
215.9
 46
0.0
 47
0.0
 48
0.0
 49
0.0
140
0.0
141
0.0
142
1.0
143
1.0
 70
   688
 72
     0
 73
     1
 74
     5
  7

 75
    16
 76
     0
 77
     2
 78
   300
147
1.0
148
0.0
149
0.0
100
AcDbLayout
  1
Setup 12
 70
     1
 71
    13
 10
0.0
 20
0.0
 11
0.0
 21
0.0
 12
0.0
 22
0.0
 32
0.0
 14
0.0
 24
0.0
 34
0.0
 15
0.0
 25
0.0
 35
0.0
146
0.0
 13
0.0
 23
0.0
 33
0.0
 16
1.0
 26
0.0
 36
0.0
 17
0.0
 27
1.0
 37
0.0
 76
     0
330
645
331
649
  0
LAYOUT
  5
64C
102
{ACAD_REACTORS
330
1A
102
}
330
1A
100
AcDbPlotSettings
  1

  2
none_device
  4
ANSI_A_(11.00_x_8.50_Inches)
  6

 40
6.35
 41
19.05
 42
6.35000508
 43
19.05000254
 44
279.4
 45
215.9
 46
0.0
 47
0.0
 48
0.0
 49
0.0
140
0.0
141
0.0
142
1.0
143
1.0
 70
   688
 72
     0
 73
     1
 74
     5
  7

 75
    16
 76
     0
 77
     2
 78
   300
147
1.0
148
0.0
149
0.0
100
AcDbLayout
  1
Setup 13
 70
     1
 71
    14
 10
0.0
 20
0.0
 11
0.0
 21
0.0
 12
0.0
 22
0.0
 32
0.0
 14
0.0
 24
0.0
 34
0.0
 15
0.0
 25
0.0
 35
0.0
146
0.0
 13
0.0
 23
0.0
 33
0.0
 16
1.0
 26
0.0
 36
0.0
 17
0.0
 27
1.0
 37
0.0
 76
     0
330
64B
331
64F
  0
LAYOUT
  5
652
102
{ACAD_REACTORS
330
1A
102
}
330
1A
100
AcDbPlotSettings
  1

  2
none_device
  4
ANSI_A_(11.00_x_8.50_Inches)
  6

 40
6.35
 41
19.05
 42
6.35000508
 43
19.05000254
 44
279.4
 45
215.9
 46
0.0
 47
0.0
 48
0.0
 49
0.0
140
0.0
141
0.0
142
1.0
143
1.0
 70
   688
 72
     0
 73
     1
 74
     5
  7

 75
    16
 76
     0
 77
     2
 78
   300
147
1.0
148
0.0
149
0.0
100
AcDbLayout
  1
Setup 14
 70
     1
 71
    15
 10
0.0
 20
0.0
 11
0.0
 21
0.0
 12
0.0
 22
0.0
 32
0.0
 14
0.0
 24
0.0
 34
0.0
 15
0.0
 25
0.0
 35
0.0
146
0.0
 13
0.0
 23
0.0
 33
0.0
 16
1.0
 26
0.0
 36
0.0
 17
0.0
 27
1.0
 37
0.0
 76
     0
330
651
331
655
  0
LAYOUT
  5
658
102
{ACAD_REACTORS
330
1A
102
}
330
1A
100
AcDbPlotSettings
  1

  2
none_device
  4
ANSI_A_(11.00_x_8.50_Inches)
  6

 40
6.35
 41
19.05
 42
6.35000508
 43
19.05000254
 44
279.4
 45
215.9
 46
0.0
 47
0.0
 48
0.0
 49
0.0
140
0.0
141
0.0
142
1.0
143
1.0
 70
   688
 72
     0
 73
     1
 74
     5
  7

 75
    16
 76
     0
 77
     2
 78
   300
147
1.0
148
0.0
149
0.0
100
AcDbLayout
  1
Setup 15
 70
     1
 71
    16
 10
0.0
 20
0.0
 11
0.0
 21
0.0
 12
0.0
 22
0.0
 32
0.0
 14
0.0
 24
0.0
 34
0.0
 15
0.0
 25
0.0
 35
0.0
146
0.0
 13
0.0
 23
0.0
 33
0.0
 16
1.0
 26
0.0
 36
0.0
 17
0.0
 27
1.0
 37
0.0
 76
     0
330
657
331
65B
  0
LAYOUT
  5
5FE
102
{ACAD_REACTORS
330
1A
102
}
330
1A
100
AcDbPlotSettings
  1

  2
none_device
  4
ANSI_A_(11.00_x_8.50_Inches)
  6

 40
6.35
 41
19.05
 42
6.35000508
 43
19.05000254
 44
279.4
 45
215.9
 46
0.0
 47
0.0
 48
0.0
 49
0.0
140
0.0
141
0.0
142
1.0
143
1.0
 70
   688
 72
     0
 73
     1
 74
     5
  7

 75
    16
 76
     0
 77
     2
 78
   300
147
1.0
148
0.0
149
0.0
100
AcDbLayout
  1
Working Layout
 70
     1
 71
     1
 10
-0.25
 20
-0.25
 11
10.75
 21
8.25
 12
0.0
 22
0.0
 32
0.0
 14
0.0
 24
0.0
 34
0.0
 15
0.0
 25
0.0
 35
0.0
146
0.0
 13
0.0
 23
0.0
 33
0.0
 16
1.0
 26
0.0
 36
0.0
 17
0.0
 27
1.0
 37
0.0
 76
     0
330
5FD
331
601
  0
LAYOUT
  5
634
102
{ACAD_REACTORS
330
1A
102
}
330
1A
100
AcDbPlotSettings
  1

  2
none_device
  4
ANSI_A_(11.00_x_8.50_Inches)
  6

 40
6.35
 41
19.05
 42
6.35000508
 43
19.05000254
 44
279.4
 45
215.9
 46
0.0
 47
0.0
 48
0.0
 49
0.0
140
0.0
141
0.0
142
1.0
143
1.0
 70
   688
 72
     0
 73
     1
 74
     5
  7

 75
    16
 76
     0
 77
     2
 78
   300
147
1.0
148
0.0
149
0.0
100
AcDbLayout
  1
X
 70
     1
 71
    10
 10
0.0
 20
0.0
 11
0.0
 21
0.0
 12
0.0
 22
0.0
 32
0.0
 14
0.0
 24
0.0
 34
0.0
 15
0.0
 25
0.0
 35
0.0
146
0.0
 13
0.0
 23
0.0
 33
0.0
 16
1.0
 26
0.0
 36
0.0
 17
0.0
 27
1.0
 37
0.0
 76
     0
330
633
331
637
  0
MATERIAL
  5
3D
102
{ACAD_REACTORS
330
3B
102
}
330
3B
100
AcDbMaterial
  1
ByBlock
 72
     1
 94
      127
  0
MATERIAL
  5
3C
102
{ACAD_REACTORS
330
3B
102
}
330
3B
100
AcDbMaterial
  1
ByLayer
 72
     1
 94
      127
  0
MATERIAL
  5
3E
102
{ACAD_REACTORS
330
3B
102
}
330
3B
100
AcDbMaterial
  1
Global
 72
     1
 94
      127
  0
MLINESTYLE
  5
18
102
{ACAD_REACTORS
330
17
102
}
330
17
100
AcDbMlineStyle
  2
Standard
 70
     0
  3

 62
   256
 51
90.0
 52
90.0
 71
     2
 49
0.5
 62
   256
  6
BYLAYER
 49
-0.5
 62
   256
  6
BYLAYER
  0
ACDBPLACEHOLDER
  5
F
102
{ACAD_REACTORS
330
E
102
}
330
E
  0
SCALE
  5
6B8
102
{ACAD_REACTORS
330
6B7
102
}
330
6B7
100
AcDbScale
 70
     0
300
1:1
140
1.0
141
1.0
290
     1
  0
SCALE
  5
6B9
102
{ACAD_REACTORS
330
6B7
102
}
330
6B7
100
AcDbScale
 70
     0
300
1:2
140
1.0
141
2.0
290
     0
  0
SCALE
  5
6BA
102
{ACAD_REACTORS
330
6B7
102
}
330
6B7
100
AcDbScale
 70
     0
300
1:4
140
1.0
141
4.0
290
     0
  0
SCALE
  5
6BB
102
{ACAD_REACTORS
330
6B7
102
}
330
6B7
100
AcDbScale
 70
     0
300
1:5
140
1.0
141
5.0
290
     0
  0
SCALE
  5
6BC
102
{ACAD_REACTORS
330
6B7
102
}
330
6B7
100
AcDbScale
 70
     0
300
1:8
140
1.0
141
8.0
290
     0
  0
SCALE
  5
6BD
102
{ACAD_REACTORS
330
6B7
102
}
330
6B7
100
AcDbScale
 70
     0
300
1:10
140
1.0
141
10.0
290
     0
  0
SCALE
  5
6BE
102
{ACAD_REACTORS
330
6B7
102
}
330
6B7
100
AcDbScale
 70
     0
300
1:16
140
1.0
141
16.0
290
     0
  0
SCALE
  5
6BF
102
{ACAD_REACTORS
330
6B7
102
}
330
6B7
100
AcDbScale
 70
     0
300
1:20
140
1.0
141
20.0
290
     0
  0
SCALE
  5
6C0
102
{ACAD_REACTORS
330
6B7
102
}
330
6B7
100
AcDbScale
 70
     0
300
1:30
140
1.0
141
30.0
290
     0
  0
SCALE
  5
6C1
102
{ACAD_REACTORS
330
6B7
102
}
330
6B7
100
AcDbScale
 70
     0
300
1:40
140
1.0
141
40.0
290
     0
  0
SCALE
  5
6C2
102
{ACAD_REACTORS
330
6B7
102
}
330
6B7
100
AcDbScale
 70
     0
300
1:50
140
1.0
141
50.0
290
     0
  0
SCALE
  5
6C3
102
{ACAD_REACTORS
330
6B7
102
}
330
6B7
100
AcDbScale
 70
     0
300
1:100
140
1.0
141
100.0
290
     0
  0
SCALE
  5
6C4
102
{ACAD_REACTORS
330
6B7
102
}
330
6B7
100
AcDbScale
 70
     0
300
2:1
140
2.0
141
1.0
290
     0
  0
SCALE
  5
6C5
102
{ACAD_REACTORS
330
6B7
102
}
330
6B7
100
AcDbScale
 70
     0
300
4:1
140
4.0
141
1.0
290
     0
  0
SCALE
  5
6C6
102
{ACAD_REACTORS
330
6B7
102
}
330
6B7
100
AcDbScale
 70
     0
300
8:1
140
8.0
141
1.0
290
     0
  0
SCALE
  5
6C7
102
{ACAD_REACTORS
330
6B7
102
}
330
6B7
100
AcDbScale
 70
     0
300
10:1
140
10.0
141
1.0
290
     0
  0
SCALE
  5
6C8
102
{ACAD_REACTORS
330
6B7
102
}
330
6B7
100
AcDbScale
 70
     0
300
100:1
140
100.0
141
1.0
290
     0
  0
SCALE
  5
6C9
102
{ACAD_REACTORS
330
6B7
102
}
330
6B7
100
AcDbScale
 70
     0
300
1/128" = 1'-0"
140
0.0078125
141
12.0
290
     0
  0
SCALE
  5
6CA
102
{ACAD_REACTORS
330
6B7
102
}
330
6B7
100
AcDbScale
 70
     0
300
1/64" = 1'-0"
140
0.015625
141
12.0
290
     0
  0
SCALE
  5
6CB
102
{ACAD_REACTORS
330
6B7
102
}
330
6B7
100
AcDbScale
 70
     0
300
1/32" = 1'-0"
140
0.03125
141
12.0
290
     0
  0
SCALE
  5
6CC
102
{ACAD_REACTORS
330
6B7
102
}
330
6B7
100
AcDbScale
 70
     0
300
1/16" = 1'-0"
140
0.0625
141
12.0
290
     0
  0
SCALE
  5
6CD
102
{ACAD_REACTORS
330
6B7
102
}
330
6B7
100
AcDbScale
 70
     0
300
3/32" = 1'-0"
140
0.09375
141
12.0
290
     0
  0
SCALE
  5
6CE
102
{ACAD_REACTORS
330
6B7
102
}
330
6B7
100
AcDbScale
 70
     0
300
1/8" = 1'-0"
140
0.125
141
12.0
290
     0
  0
SCALE
  5
6CF
102
{ACAD_REACTORS
330
6B7
102
}
330
6B7
100
AcDbScale
 70
     0
300
3/16" = 1'-0"
140
0.1875
141
12.0
290
     0
  0
SCALE
  5
6D0
102
{ACAD_REACTORS
330
6B7
102
}
330
6B7
100
AcDbScale
 70
     0
300
1/4" = 1'-0"
140
0.25
141
12.0
290
     0
  0
SCALE
  5
6D1
102
{ACAD_REACTORS
330
6B7
102
}
330
6B7
100
AcDbScale
 70
     0
300
3/8" = 1'-0"
140
0.375
141
12.0
290
     0
  0
SCALE
  5
6D2
102
{ACAD_REACTORS
330
6B7
102
}
330
6B7
100
AcDbScale
 70
     0
300
1/2" = 1'-0"
140
0.5
141
12.0
290
     0
  0
SCALE
  5
6D3
102
{ACAD_REACTORS
330
6B7
102
}
330
6B7
100
AcDbScale
 70
     0
300
3/4" = 1'-0"
140
0.75
141
12.0
290
     0
  0
SCALE
  5
6D4
102
{ACAD_REACTORS
330
6B7
102
}
330
6B7
100
AcDbScale
 70
     0
300
1" = 1'-0"
140
1.0
141
12.0
290
     0
  0
SCALE
  5
6D5
102
{ACAD_REACTORS
330
6B7
102
}
330
6B7
100
AcDbScale
 70
     0
300
1-1/2" = 1'-0"
140
1.5
141
12.0
290
     0
  0
SCALE
  5
6D6
102
{ACAD_REACTORS
330
6B7
102
}
330
6B7
100
AcDbScale
 70
     0
300
3" = 1'-0"
140
3.0
141
12.0
290
     0
  0
SCALE
  5
6D7
102
{ACAD_REACTORS
330
6B7
102
}
330
6B7
100
AcDbScale
 70
     0
300
6" = 1'-0"
140
6.0
141
12.0
290
     0
  0
SCALE
  5
6D8
102
{ACAD_REACTORS
330
6B7
102
}
330
6B7
100
AcDbScale
 70
     0
300
1'-0" = 1'-0"
140
12.0
141
12.0
290
     0
  0
VISUALSTYLE
  5
2F
102
{ACAD_REACTORS
330
2A
102
}
330
2A
100
AcDbVisualStyle
  2
2dWireframe
 70
     4
177
     2
291
     0
 71
     0
176
     1
 72
     2
176
     1
 73
     0
176
     1
 90
        0
176
     1
 40
-0.6
176
     1
 41
-30.0
176
     1
 62
     5
 63
     7
421
 16777215
176
     1
 74
     1
176
     1
 91
        4
176
     1
 64
     7
176
     1
 65
   257
176
     1
 75
     1
176
     1
175
     1
176
     1
 42
1.0
176
     1
 92
        0
176
     1
 66
   257
176
     1
 43
1.0
176
     1
 76
     1
176
     1
 77
     6
176
     1
 78
     2
176
     1
 67
     7
176
     1
 79
     5
176
     1
170
     0
176
     1
171
     0
176
     1
290
     0
176
     1
 93
        1
176
     1
 44
0.0
176
     1
173
     0
176
     1
  0
VISUALSTYLE
  5
31
102
{ACAD_REACTORS
330
2A
102
}
330
2A
100
AcDbVisualStyle
  2
3D Hidden
 70
     6
177
     2
291
     0
 71
     1
176
     1
 72
     2
176
     1
 73
     2
176
     1
 90
        0
176
     1
 40
-0.6
176
     1
 41
-30.0
176
     1
 62
     5
 63
     7
421
 16777215
176
     1
 74
     2
176
     1
 91
        2
176
     1
 64
     7
176
     1
 65
   257
176
     1
 75
     2
176
     1
175
     1
176
     1
 42
40.0
176
     1
 92
        0
176
     1
 66
   257
176
     1
 43
1.0
176
     1
 76
     1
176
     1
 77
     6
176
     1
 78
     2
176
     1
 67
     7
176
     1
 79
     3
176
     1
170
     0
176
     1
171
     0
176
     1
290
     0
176
     1
 93
        1
176
     1
 44
0.0
176
     1
173
     0
176
     1
  0
VISUALSTYLE
  5
30
102
{ACAD_REACTORS
330
2A
102
}
330
2A
100
AcDbVisualStyle
  2
3dWireframe
 70
     5
177
     2
291
     0
 71
     0
176
     1
 72
     2
176
     1
 73
     0
176
     1
 90
        0
176
     1
 40
-0.6
176
     1
 41
-30.0
176
     1
 62
     5
 63
     7
421
 16777215
176
     1
 74
     1
176
     1
 91
        4
176
     1
 64
     7
176
     1
 65
   257
176
     1
 75
     1
176
     1
175
     1
176
     1
 42
1.0
176
     1
 92
        0
176
     1
 66
   257
176
     1
 43
1.0
176
     1
 76
     1
176
     1
 77
     6
176
     1
 78
     2
176
     1
 67
     7
176
     1
 79
     5
176
     1
170
     0
176
     1
171
     0
176
     1
290
     0
176
     1
 93
        1
176
     1
 44
0.0
176
     1
173
     0
176
     1
  0
VISUALSTYLE
  5
32
102
{ACAD_REACTORS
330
2A
102
}
330
2A
100
AcDbVisualStyle
  2
Basic
 70
     7
177
     2
291
     1
 71
     1
176
     1
 72
     0
176
     1
 73
     1
176
     1
 90
        0
176
     1
 40
-0.6
176
     1
 41
-30.0
176
     1
 62
     5
 63
     7
421
 16777215
176
     1
 74
     0
176
     1
 91
        4
176
     1
 64
     7
176
     1
 65
   257
176
     1
 75
     1
176
     1
175
     1
176
     1
 42
1.0
176
     1
 92
        8
176
     1
 66
     7
176
     1
 43
1.0
176
     1
 76
     1
176
     1
 77
     6
176
     1
 78
     2
176
     1
 67
     7
176
     1
 79
     5
176
     1
170
     0
176
     1
171
     0
176
     1
290
     0
176
     1
 93
        1
176
     1
 44
0.0
176
     1
173
     0
176
     1
  0
VISUALSTYLE
  5
36
102
{ACAD_REACTORS
330
2A
102
}
330
2A
100
AcDbVisualStyle
  2
Brighten
 70
    12
177
     2
291
     1
 71
     2
176
     1
 72
     2
176
     1
 73
     0
176
     1
 90
        0
176
     1
 40
-0.6
176
     1
 41
-30.0
176
     1
 62
     5
 63
     7
421
 16777215
176
     1
 74
     1
176
     1
 91
        4
176
     1
 64
     7
176
     1
 65
   257
176
     1
 75
     1
176
     1
175
     1
176
     1
 42
1.0
176
     1
 92
        8
176
     1
 66
     7
176
     1
 43
1.0
176
     1
 76
     1
176
     1
 77
     6
176
     1
 78
     2
176
     1
 67
     7
176
     1
 79
     5
176
     1
170
     0
176
     1
171
     0
176
     1
290
     0
176
     1
 93
        1
176
     1
 44
50.0
176
     1
173
     0
176
     1
  0
VISUALSTYLE
  5
3A
102
{ACAD_REACTORS
330
2A
102
}
330
2A
100
AcDbVisualStyle
  2
ColorChange
 70
    16
177
     2
291
     1
 71
     2
176
     1
 72
     2
176
     1
 73
     3
176
     1
 90
        0
176
     1
 40
-0.6
176
     1
 41
-30.0
176
     1
 62
     5
 63
     8
421
  8421504
176
     1
 74
     1
176
     1
 91
        4
176
     1
 64
     7
176
     1
 65
   257
176
     1
 75
     1
176
     1
175
     1
176
     1
 42
1.0
176
     1
 92
        8
176
     1
 66
     8
424
  8421504
176
     1
 43
1.0
176
     1
 76
     1
176
     1
 77
     6
176
     1
 78
     2
176
     1
 67
     7
176
     1
 79
     5
176
     1
170
     0
176
     1
171
     0
176
     1
290
     0
176
     1
 93
        1
176
     1
 44
0.0
176
     1
173
     0
176
     1
  0
VISUALSTYLE
  5
34
102
{ACAD_REACTORS
330
2A
102
}
330
2A
100
AcDbVisualStyle
  2
Conceptual
 70
     9
177
     2
291
     0
 71
     3
176
     1
 72
     2
176
     1
 73
     0
176
     1
 90
        0
176
     1
 40
-0.6
176
     1
 41
-30.0
176
     1
 62
     5
 63
     7
421
 16777215
176
     1
 74
     2
176
     1
 91
        2
176
     1
 64
     7
176
     1
 65
   257
176
     1
 75
     1
176
     1
175
     1
176
     1
 42
40.0
176
     1
 92
        8
176
     1
 66
     7
176
     1
 43
1.0
176
     1
 76
     1
176
     1
 77
     6
176
     1
 78
     2
176
     1
 67
     7
176
     1
 79
     3
176
     1
170
     0
176
     1
171
     0
176
     1
290
     0
176
     1
 93
        1
176
     1
 44
0.0
176
     1
173
     0
176
     1
  0
VISUALSTYLE
  5
35
102
{ACAD_REACTORS
330
2A
102
}
330
2A
100
AcDbVisualStyle
  2
Dim
 70
    11
177
     2
291
     1
 71
     2
176
     1
 72
     2
176
     1
 73
     0
176
     1
 90
        0
176
     1
 40
-0.6
176
     1
 41
-30.0
176
     1
 62
     5
 63
     7
421
 16777215
176
     1
 74
     1
176
     1
 91
        4
176
     1
 64
     7
176
     1
 65
   257
176
     1
 75
     1
176
     1
175
     1
176
     1
 42
1.0
176
     1
 92
        8
176
     1
 66
     7
176
     1
 43
1.0
176
     1
 76
     1
176
     1
 77
     6
176
     1
 78
     2
176
     1
 67
     7
176
     1
 79
     5
176
     1
170
     0
176
     1
171
     0
176
     1
290
     0
176
     1
 93
        1
176
     1
 44
-50.0
176
     1
173
     0
176
     1
  0
VISUALSTYLE
  5
39
102
{ACAD_REACTORS
330
2A
102
}
330
2A
100
AcDbVisualStyle
  2
Facepattern
 70
    15
177
     2
291
     1
 71
     2
176
     1
 72
     2
176
     1
 73
     0
176
     1
 90
        0
176
     1
 40
-0.6
176
     1
 41
-30.0
176
     1
 62
     5
 63
     7
421
 16777215
176
     1
 74
     1
176
     1
 91
        4
176
     1
 64
     7
176
     1
 65
   257
176
     1
 75
     1
176
     1
175
     1
176
     1
 42
1.0
176
     1
 92
        8
176
     1
 66
     7
176
     1
 43
1.0
176
     1
 76
     1
176
     1
 77
     6
176
     1
 78
     2
176
     1
 67
     7
176
     1
 79
     5
176
     1
170
     0
176
     1
171
     0
176
     1
290
     0
176
     1
 93
        1
176
     1
 44
0.0
176
     1
173
     0
176
     1
  0
VISUALSTYLE
  5
2B
102
{ACAD_REACTORS
330
2A
102
}
330
2A
100
AcDbVisualStyle
  2
Flat
 70
     0
177
     2
291
     1
 71
     2
176
     1
 72
     1
176
     1
 73
     1
176
     1
 90
        2
176
     1
 40
-0.6
176
     1
 41
30.0
176
     1
 62
     5
 63
     7
421
 16777215
176
     1
 74
     0
176
     1
 91
        4
176
     1
 64
     7
176
     1
 65
   257
176
     1
 75
     1
176
     1
175
     1
176
     1
 42
1.0
176
     1
 92
        8
176
     1
 66
     7
176
     1
 43
1.0
176
     1
 76
     1
176
     1
 77
     6
176
     1
 78
     2
176
     1
 67
     7
176
     1
 79
     5
176
     1
170
     0
176
     1
171
     0
176
     1
290
     0
176
     1
 93
       13
176
     1
 44
0.0
176
     1
173
     0
176
     1
  0
VISUALSTYLE
  5
2C
102
{ACAD_REACTORS
330
2A
102
}
330
2A
100
AcDbVisualStyle
  2
FlatWithEdges
 70
     1
177
     2
291
     1
 71
     2
176
     1
 72
     1
176
     1
 73
     1
176
     1
 90
        2
176
     1
 40
-0.6
176
     1
 41
30.0
176
     1
 62
     5
 63
     7
421
 16777215
176
     1
 74
     1
176
     1
 91
        4
176
     1
 64
     7
176
     1
 65
   257
176
     1
 75
     1
176
     1
175
     1
176
     1
 42
1.0
176
     1
 92
        0
176
     1
 66
   257
176
     1
 43
1.0
176
     1
 76
     1
176
     1
 77
     6
176
     1
 78
     2
176
     1
 67
     7
176
     1
 79
     5
176
     1
170
     0
176
     1
171
     0
176
     1
290
     0
176
     1
 93
       13
176
     1
 44
0.0
176
     1
173
     0
176
     1
  0
VISUALSTYLE
  5
2D
102
{ACAD_REACTORS
330
2A
102
}
330
2A
100
AcDbVisualStyle
  2
Gouraud
 70
     2
177
     2
291
     1
 71
     2
176
     1
 72
     2
176
     1
 73
     1
176
     1
 90
        2
176
     1
 40
-0.6
176
     1
 41
30.0
176
     1
 62
     5
 63
     7
421
 16777215
176
     1
 74
     0
176
     1
 91
        4
176
     1
 64
     7
176
     1
 65
   257
176
     1
 75
     1
176
     1
175
     1
176
     1
 42
1.0
176
     1
 92
        0
176
     1
 66
     7
176
     1
 43
1.0
176
     1
 76
     1
176
     1
 77
     6
176
     1
 78
     2
176
     1
 67
     7
176
     1
 79
     5
176
     1
170
     0
176
     1
171
     0
176
     1
290
     0
176
     1
 93
       13
176
     1
 44
0.0
176
     1
173
     0
176
     1
  0
VISUALSTYLE
  5
2E
102
{ACAD_REACTORS
330
2A
102
}
330
2A
100
AcDbVisualStyle
  2
GouraudWithEdges
 70
     3
177
     2
291
     1
 71
     2
176
     1
 72
     2
176
     1
 73
     1
176
     1
 90
        2
176
     1
 40
-0.6
176
     1
 41
30.0
176
     1
 62
     5
 63
     7
421
 16777215
176
     1
 74
     1
176
     1
 91
        4
176
     1
 64
     7
176
     1
 65
   257
176
     1
 75
     1
176
     1
175
     1
176
     1
 42
1.0
176
     1
 92
        0
176
     1
 66
   257
176
     1
 43
1.0
176
     1
 76
     1
176
     1
 77
     6
176
     1
 78
     2
176
     1
 67
     7
176
     1
 79
     5
176
     1
170
     0
176
     1
171
     0
176
     1
290
     0
176
     1
 93
       13
176
     1
 44
0.0
176
     1
173
     0
176
     1
  0
VISUALSTYLE
  5
38
102
{ACAD_REACTORS
330
2A
102
}
330
2A
100
AcDbVisualStyle
  2
Linepattern
 70
    14
177
     2
291
     1
 71
     2
176
     1
 72
     2
176
     1
 73
     0
176
     1
 90
        0
176
     1
 40
-0.6
176
     1
 41
-30.0
176
     1
 62
     5
 63
     7
421
 16777215
176
     1
 74
     1
176
     1
 91
        4
176
     1
 64
     7
176
     1
 65
   257
176
     1
 75
     7
176
     1
175
     7
176
     1
 42
1.0
176
     1
 92
        8
176
     1
 66
     7
176
     1
 43
1.0
176
     1
 76
     1
176
     1
 77
     6
176
     1
 78
     2
176
     1
 67
     7
176
     1
 79
     5
176
     1
170
     0
176
     1
171
     0
176
     1
290
     0
176
     1
 93
        1
176
     1
 44
0.0
176
     1
173
     0
176
     1
  0
VISUALSTYLE
  5
33
102
{ACAD_REACTORS
330
2A
102
}
330
2A
100
AcDbVisualStyle
  2
Realistic
 70
     8
177
     2
291
     0
 71
     2
176
     1
 72
     2
176
     1
 73
     0
176
     1
 90
        0
176
     1
 40
-0.6
176
     1
 41
-30.0
176
     1
 62
     5
 63
     7
421
 16777215
176
     1
 74
     1
176
     1
 91
        0
176
     1
 64
     7
176
     1
 65
   257
176
     1
 75
     1
176
     1
175
     1
176
     1
 42
1.0
176
     1
 92
        8
176
     1
 66
     8
424
  7895160
176
     1
 43
1.0
176
     1
 76
     1
176
     1
 77
     6
176
     1
 78
     2
176
     1
 67
     7
176
     1
 79
     5
176
     1
170
     0
176
     1
171
     0
176
     1
290
     0
176
     1
 93
       13
176
     1
 44
0.0
176
     1
173
     0
176
     1
  0
VISUALSTYLE
  5
37
102
{ACAD_REACTORS
330
2A
102
}
330
2A
100
AcDbVisualStyle
  2
Thicken
 70
    13
177
     2
291
     1
 71
     2
176
     1
 72
     2
176
     1
 73
     0
176
     1
 90
        0
176
     1
 40
-0.6
176
     1
 41
-30.0
176
     1
 62
     5
 63
     7
421
 16777215
176
     1
 74
     1
176
     1
 91
        4
176
     1
 64
     7
176
     1
 65
   257
176
     1
 75
     1
176
     1
175
     1
176
     1
 42
1.0
176
     1
 92
       12
176
     1
 66
     7
176
     1
 43
1.0
176
     1
 76
     1
176
     1
 77
     6
176
     1
 78
     2
176
     1
 67
     7
176
     1
 79
     5
176
     1
170
     0
176
     1
171
     0
176
     1
290
     0
176
     1
 93
        1
176
     1
 44
0.0
176
     1
173
     0
176
     1
  0
DICTIONARYVAR
  5
6DA
102
{ACAD_REACTORS
330
6D9
102
}
330
6D9
100
DictionaryVariables
280
     0
  1
1:1
  0
ENDSEC
  0
EOF
